Gitaristu.ru
Аккорды Табулатура Начинающим Мастер-класс Софт Видео Форум Блог
Новости Анонсы Гитары Гитаристы Статьи Аватарки Минусовки
Поиск





Популярные подборы




Настройка гитары






Главная > Аккорды > N > Nirvana

Аккорды
Nirvana
-
Opinion (табулатура)



Подбор прислал: gitaristu.ru




ARTIST: NIRVANA
SONG: OPINION
WRITTEN BY: KURT DONALD COBAIN (1967-1994)
TRANSCRIBED BY: STUART PENMAN (nim_rod1999@yahoo.com)
DATE OF TRANSCRIPTION: 02/08/2001


This is one of Nirvana's unreleased songs. I have seen other versions of =
I would try and tab it myself and correct the other transcription. =
Listen to it to get the strumming right. I have put the heavy version =
(which is the best and is the one I am tabbing) onto my website as an =
mp3, if you want to download it go to =
http://www.angelfire.com/la/nimrod/opinion.html
Please send any questions or comments to me at: nim_rod1999@yahoo.com
-------------------------------------------------------------------------=
---------------


This part is the verse and chorus:

E||------|------|------|------|
B||------|------|-8----|------|
G||-5----|------|-8----|------| REPEAT MAY TIMES
D||-5----|-6----|-8----|-5----|
A||-3----|-6----|-6----|-5----|
E||------|-4----|------|-3----|


This is the solo from the heavy version:

E|--------------------------------------------|
B|-----------------------4-6-6-6----4-6-6-6---|
G|-4-5-5-5----4-5-5-5-------------------------| PLAY THIS TWICE
D|--------------------------------------------|
A|--------------------------------------------|
E|--------------------------------------------|


E|--------------------------------------------|
B|------------4-6-6-6---------------4-6-6-6---|
G|-4-5-5-5---------------4-5-5-5--------------| THEN PLAY THIS ONCE
D|--------------------------------------------|
A|--------------------------------------------|
E|--------------------------------------------|

E|-----------|
B|-4-6-6-6---|
G|-----------| AND REPEAT THIS 4 TIMES
D|-----------| THEN GO INTO MAIN RIFF.
A|-----------|
E|-----------|


E||------|------|------|------|
B||------|------|-8----|------|
G||-5----|------|-8----|------| REPEAT MAY TIMES UNTIL END
D||-5----|-6----|-8----|-5----|
A||-3----|-6----|-6----|-5----|
E||------|-4----|------|-3----|


Enjoy ;)


Расскажи друзьям!




Войдите, используя Ваш аккаунт:



Забыли пароль?
Зарегистрироваться

Привет, гитарист!

Пройди супер-курс по гитаре и порази всех своей игрой!

Забрать курс!
ВАМ ПОДАРКИ ОТ ПРОЕКТА
"ГИТАРНАЯ РЕВОЛЮЦИЯ"