Gitaristu.ru
Аккорды Табулатура Начинающим Мастер-класс Софт Видео
Новости Анонсы Гитары Гитаристы Статьи Аватарки Минусовки
Поиск



Популярные подборы




Настройка гитары






Главная > Аккорды > N > Nirvana

Аккорды
Nirvana
-
Paper Cuts (табулатура)

Не нашли аккорды к песне? Посмотрите на


Подбор прислал: gitaristu.ru
Paper Cuts by Nirvana
Guitarist: Kurt Cobain
Album: Bleach
Dif.: 6
Tabbed by Twiggy5

Intro
A|-2-2-2-2-2-2--2--2-2-2--X\\\\\\\\---|
E|-1-1-1-1-1-1--1--1-1-1--X\\\\\\\\\--|
 Pm---------------------| ^ turn flanger on for pik scrape

Intro 2
A|-2-2-2-2-2-2--2--2-2-2--X\\\\\\\\--|
E|-1-1-1-1-1-1--1--1-1-1--X\\\\\\\\\-|
 Pm---------------------|

Intro 2 (cont.)
E|------------------------------------0---|
B|---------------------------------0------|
G|-----------------------------0----------|
D|----------------------------------------|
A|-2-2-2-2-2-2--2--2-2-2------------------|
E|-1-1-1-1-1-1--1--1-1-1------------------|
  Pm---------------------|  let ring---|

Verse ("At feeding time

Другие подборы этого исполнителя

Расскажи друзьям!




Привет, гитарист!

Пройди супер-курс по гитаре и порази всех своей игрой!

Забрать курс!
ВАМ ПОДАРКИ ОТ ПРОЕКТА
"ГИТАРНАЯ РЕВОЛЮЦИЯ"