Gitaristu.ru
Аккорды Табулатура Начинающим Мастер-класс Софт Видео
Новости Анонсы Гитары Гитаристы Статьи Аватарки Минусовки
Поиск



Популярные подборы




Настройка гитары






Главная > Аккорды > N > Nirvana

Аккорды
Nirvana
-
Polly (2)

Не нашли аккорды к песне? Посмотрите на


Подбор прислал: gitaristu.ru
Вообще эту песню лучше играть на Power-off.
 
M = muted

Power-off
==========
             ==Куплет==
     M           M                      
|---------------------------------------------|
|---------------------------------------------|
|-----------------------8--8---8--6--6--6--6--|
|3---3-----6--6--6---6--8--8---8--6--6--6--6--|
|3---3-----6--6--6---6--6--6---6--4--4--4--4--|
|1---1-----4--4--4---4------------------------|


              ==Припев==

     M        M       M         M
|---------------------------------------------|
|---------------------------------------------|
|-8--8---6--6--6----------4--4--4-------------|
|-8--8---6--6--6---6--6---4--4--4-------------|
|-6--6---4--4--4---6--6---2--2--2-------------|
|------------------4--4-----------------------|




F    G#        D#     C#
  Polly wants a cracker
F    G#          D#       C#
   Think I should get off of her first
F    G#        D#     C#
   I think she wants some water
F    G#        D#     C#
   To put out the blow torch
==Припев==
   D#        C#  G#      H
   Isn't me We have some seed
   D#        C#  G#        H
   Let me clip Your dirty wings
   D#             C#    G#            H
   Let me take a ride Don't hurt yourself
   D#           C#    G#         H
   I want some help To please myself
   D#         C#   G#           H 
   Got some rope You have been told
   D#         C#   G#          H
   I promise you I have been true
   D#             C#    G#            H
   Let me take a ride Don't hurt yourself
   D#           C#    G#         H
   I want some help To please myself

Polly wants a cracker
Maybe she would like more food
She asked me to untie her
Chasing me and asks for few

==Припев==

Polly says her back hurts
And she's just as bored as me
She caught me off my guard
Amazes me, her will of instinct

Другие подборы этого исполнителя

Расскажи друзьям!




Привет, гитарист!

Пройди супер-курс по гитаре и порази всех своей игрой!

Забрать курс!
ВАМ ПОДАРКИ ОТ ПРОЕКТА
"ГИТАРНАЯ РЕВОЛЮЦИЯ"