Gitaristu.ru
Аккорды Табулатура Начинающим Мастер-класс Софт Видео Форум Блог
Новости Анонсы Гитары Гитаристы Статьи Аватарки Минусовки
Поиск





Популярные подборы




Настройка гитары






Главная > Аккорды > N > Nirvana

Аккорды
Nirvana
-
Polly (4)



Подбор прислал: gitaristu.ru
Verse           

G------------------------------------||B
D------------------------------------||A
A---------------------5-5-3--3-3-3---||S
E---0--0-0-3-3-3---------------------||S

Chorus amp; Bridge

G-------------------------------------------||B
D-------------------------------------------||A
A---5--5-5--3--3-3-3------------------------||S
E------------------------3--3-3--6--6-6-6---||S

Можно также играть нена Bass а на простой 6-ти струнной гитаре перикинув на 5-6 струны
Расскажи друзьям!




Войдите, используя Ваш аккаунт:



Забыли пароль?
Зарегистрироваться

Привет, гитарист!

Пройди супер-курс по гитаре и порази всех своей игрой!

Забрать курс!
ВАМ ПОДАРКИ ОТ ПРОЕКТА
"ГИТАРНАЯ РЕВОЛЮЦИЯ"