Gitaristu.ru
Аккорды Табулатура Начинающим Мастер-класс Софт Видео
Новости Анонсы Гитары Гитаристы Статьи Аватарки Минусовки
Поиск



Популярные подборы




Настройка гитары






Главная > Аккорды > N > Nirvana

Аккорды
Nirvana
-
Rape Me (2)

Не нашли аккорды к песне? Посмотрите на


Подбор прислал: gitaristu.ru
Verse:
G-------------------------------------------|
D-------------------------------------------|
A-0--0--0-0-0-3-3-3-------------------------|
E------------------------0--0--0-0-0-3-3-3--|

Chorus:

G-1-1--4-4------------|
D----------1-1--4-4---|
A---------------------|
E---------------------|
Табы для 4 струнной Басс гитары.
=========================================================================
A             C          E           G
Эти акорды для начала песни,       бой очень долго писать, если кто не подберет, 
обратится на мыло, я напишу

Другие подборы этого исполнителя

Расскажи друзьям!




Привет, гитарист!

Пройди супер-курс по гитаре и порази всех своей игрой!

Забрать курс!
ВАМ ПОДАРКИ ОТ ПРОЕКТА
"ГИТАРНАЯ РЕВОЛЮЦИЯ"