Gitaristu.ru
Аккорды Табулатура Начинающим Мастер-класс Софт Видео
Новости Анонсы Гитары Гитаристы Статьи Аватарки Минусовки
Поиск



Популярные подборы




Настройка гитары






Главная > Аккорды > N > Nirvana

Аккорды
Nirvana
-
Rape me (аккорды)

Не нашли аккорды к песне? Посмотрите на


Подбор прислал: gitaristu.ru



Date: Thu, 12 Apr 2001 23:30:03 -0400
From: BeMcD46290@aol.com
Subject: n/nirvana/rape_me.crd

Tabbed By =Brendan McDowell
E-Mail Address=BeMcD46290@aol.com
Artist=nirvana
Song=Rape Me

Tunning on Eb Ab Db Gb Bb eb

Ther whole song is just A    C5    E   G
some parts destorted some parts not

The part where his picking goes like this
   A             A            C5          C5
-------------------------------------------------
---0----0-----------------3----3---------------
---3--------3-------------5---------5----------
---3-------------3--------5--------------5-----
---3------------------3---5-------------------5
---0---------------------------------------------
---0---------------------------------------------
    Em      Em                G5          G5

---0---0-------------------3----3----------------
---2-------2---------------5---------5-----------
---2------------2----------5--------------5------
---0-----------------0-----5--------------------5
---0-----------------------------------------------
---0-----------------------------------------------


Другие подборы этого исполнителя

Расскажи друзьям!




Привет, гитарист!

Пройди супер-курс по гитаре и порази всех своей игрой!

Забрать курс!
ВАМ ПОДАРКИ ОТ ПРОЕКТА
"ГИТАРНАЯ РЕВОЛЮЦИЯ"