Gitaristu.ru
Аккорды Табулатура Начинающим Мастер-класс Софт Видео Форум Блог
Новости Анонсы Гитары Гитаристы Статьи Аватарки Минусовки
Поиск





Популярные подборы




Настройка гитары






Главная > Аккорды > N > Nirvana

Аккорды
Nirvana
-
Sappy



Подбор прислал: gitaristu.ru
And if you save yourself
You will make him happy
He'll keep you in a jar
And you'll think you're happy
He'll give you breathing holes
And you'll think you're happy
He'll cover you with dust
And you'll think you're happy now

        B5          Gmaj7       Esus2        F#sus4          
|-----------------|---------------------|-----------------|
|-----------------|---------------------|-----------------|
|-----4-----4-----|------4----------4---|-----------------|
|---4-----4-----4-|----4----------4-----|-----4-----4-----|
|-2-----2-----2---|---------------------|---4-----4-----4-|
|-----------------|-3------3---0------0-|-2-----2-----2---|

    G5       A5             B5
|-------------------|-----------------|
|-------------------|-----------------|
|------0-------2----|-----4-----4-----|
|----0-------2------|---4-----4-----4-|
|----------0------0-|-2------2-----2--|
|-3------3----------|-----------------|

*Chorus*:

You're in a laundry room
You're in a laundry room
The clue that came to you, oh

        Gmaj7           Esus2
|-----------------|-----------------|
|-----------------|-----------------|
|-----4-----4-----|-----4-----4-----|
|---4-----4-----4-|---4-----4-----4-|
|-----------------|-----------------|
|-3-----3-----3---|-0-----0-----0---|


*Verse*:

And if you kill yourself 
You will think you're happy
He'll keep you in a jar
Then you'll think you're happy
He'll give you breathing holes
Then you'll think you're happy
He'll cover you with dust
Then you'll think you're happy now
Расскажи друзьям!




Войдите, используя Ваш аккаунт:



Забыли пароль?
Зарегистрироваться

Привет, гитарист!

Пройди супер-курс по гитаре и порази всех своей игрой!

Забрать курс!
ВАМ ПОДАРКИ ОТ ПРОЕКТА
"ГИТАРНАЯ РЕВОЛЮЦИЯ"