Gitaristu.ru
Аккорды Табулатура Начинающим Мастер-класс Софт Видео
Новости Анонсы Гитары Гитаристы Статьи Аватарки Минусовки
Поиск



Популярные подборы




Настройка гитары






Главная > Аккорды > N > Nirvana

Аккорды
Nirvana
-
Sappy (аккорды)

Не нашли аккорды к песне? Посмотрите на


Подбор прислал: gitaristu.ru



Date: Tue, 17 Sep 2002 20:21:03 +0100
From: Robert Turner 
Subject: n/nirvana/sappy.crd

Artist: Nirvana
Title: Sappy
Album: Various Bootlegs
Transcribed by: Robert Turner
Email: Robert_turner31@homail.com

This is a cool song and I have seen lots of bad
TABs of it. But this TAB is 100% right (except I havnt
done the solo). Enjoy  

------------------------------|-----------------------------------------
------------------------------|-----------------------------------------
-66666--77-4444---------------|-66666-----------------------------------
-66666--77-4444-66666-77-9999-|-66666-77777-44444-77777-44444-----------
-44444--55-2222-66666-77-9999-|-44444-77777-44444-77777-44444-----------
----------------44444-55-7777-|-------55555-22222-55555-22222-----------


------------------------------------------------------------------------
------------------------------------------------------------------------
------------------------------------------------------------------------
-77777-44444-77777-6----------------------------------------------------
-77777-44444-77777-6----------------------------------------------------
-55555-22222-55555-4----------------------------------------------------


Другие подборы этого исполнителя

Расскажи друзьям!




Привет, гитарист!

Пройди супер-курс по гитаре и порази всех своей игрой!

Забрать курс!
ВАМ ПОДАРКИ ОТ ПРОЕКТА
"ГИТАРНАЯ РЕВОЛЮЦИЯ"