Gitaristu.ru
Аккорды Табулатура Начинающим Мастер-класс Софт Видео
Новости Анонсы Гитары Гитаристы Статьи Аватарки Минусовки
Поиск



Популярные подборы




Настройка гитары






Главная > Аккорды > N > Nirvana

Аккорды
Nirvana
-
Sappy (табулатура)

Не нашли аккорды к песне? Посмотрите на


Подбор прислал: gitaristu.ru



Date: Thu, 16 Nov 1995 20:59:37 +0100
From: Anne-Paulien Helmond 

sappy.tab

Nirvana - Sappy (aka Versus Chorus Verse)
-----------------------------------------

I think it's more accurate then the ones I've seen...

Sappy as recorded by Nirvana from the Outcesticide I album, acoustic version.
Normal Tuning.

Words and Music by: Kurt Cobain
Transcribed by: Sem van Blerkem

*Verse*:

And if you save ...

        B5          Gmaj7       Esus2        F#sus4          
|-----------------|---------------------|-----------------|
|-----------------|---------------------|-----------------|
|-----4-----4-----|------4----------4---|-----------------|
|---4-----4-----4-|----4----------4-----|-----4-----4-----|
|-2-----2-----2---|---------------------|---4-----4-----4-|
|-----------------|-3------3---0------0-|-2-----2-----2---|

    G5       A5             B5
|-------------------|-----------------|
|-------------------|-----------------|
|------0-------2----|-----4-----4-----|
|----0-------2------|---4-----4-----4-|
|----------0------0-|-2------2-----2--|
|-3------3----------|-----------------|

*Chorus*:

You're in a laundry ...

        Gmaj7           Esus2
|-----------------|-----------------|
|-----------------|-----------------|
|-----4-----4-----|-----4-----4-----|
|---4-----4-----4-|---4-----4-----4-|
|-----------------|-----------------|
|-3-----3-----3---|-0-----0-----0---|


*Verse*:

And if you kill ....

*Chorus*:

You're in a laundry ....

*Guitar solo over verse chords*:

Not present yet.

*Chorus*:

You're in a laundry ....

*Verse*:

And if you fool yourself....

*Chorus*:

You're in a laundry room....

*Kurt ends the song with*:

---
---
---
-4-
-2-
-2-

Comments and suggestions to: Anne (fhelmond@inter.nl.net)



title:  sappy
        (i'm sure some of you know this as verse chorus verse. it was an
         earlier recording, 1988 i believe)        
artist:  kurt cobain
disc:  live and demos, unhappy, etc.
tuning:  standard, i believe.  may be tuned down a half step
(Eb Ab Db Gb Bb Eb)
effects:  none what so ever;  in fact, it sounds best on an acoustic guitar,
as that's how it was recorded.  if doing it on an electric, i suggest turning
the tone down for a lower sound, not as crisp.

chorus:
E-|------------------------------------------------------------%--------------|
B-|-----0-----0----0---0---------------------------------------%--------------|
G-|----------------------------------------------------------2-%--------------|
D-|---4-----4----------------------2-------4-----4-----5---2---%--------------|
A-|-2-----2-----2----------------2-------4-----4-----5---0-----%--------------|
E-|------------------3---3/(5)-0-----0-2-----2-----3-----------%--------------|

..i know this is a really incomplete tab, but i'm clueless as to what the
chorus is.  anyway, here're the words:

verse one:
and if you save your friends, you will make her ....

chorus:
you're in a laundry room.. you're in a laundry roo....

verse two:
and if you save yourself, you will make him ....
that's it.  questions/comments/criqtiques
email me at fyi23@uoft02.utoledo.edu

btw, if you have a nirvana boot list, please e-mail me 


Другие подборы этого исполнителя

Расскажи друзьям!




Привет, гитарист!

Пройди супер-курс по гитаре и порази всех своей игрой!

Забрать курс!
ВАМ ПОДАРКИ ОТ ПРОЕКТА
"ГИТАРНАЯ РЕВОЛЮЦИЯ"