Gitaristu.ru
Аккорды Табулатура Начинающим Мастер-класс Софт Видео
Новости Анонсы Гитары Гитаристы Статьи Аватарки Минусовки
Поиск



Популярные подборы




Настройка гитары






Главная > Аккорды > N > Nirvana

Аккорды
Nirvana
-
Sifting (табулатура)

Не нашли аккорды к песне? Посмотрите на


Подбор прислал: gitaristu.ru


From: Simz1@aol.com
Date: Wed, 17 Jan 1996 18:48:16 -0500
Subject: TAB:SIFTING by NIRVANA

                THIS IS THE TAB TO SIFTING OFF OF BLEACH , SONG WRITTEN B=
Y
KURT COBAIN.
Tabbed by Mike Simeone
=0D
E=3DLow E
e=3DHigh E
C5           B5
------        -----
------        -----
--5--        --4--
--5--        --4--
--3--        --2--
------        -----
P.M.-----------------|  =3D Palm Mute
(   )   =3D  A # in parenthesis is a ghost note.  When written after a # =
, it
is a bend.
       =3D  Slide
            Regular tuning.
=0D
          You people are all musicians , so Im sure you can figure out th=
e
timing , etc.
=0D
                                          *****Intro******          Play =
4
times.
(DRUMS)|     (FDBK)         P.M.--------------|
=0D
                 a|-----(2)---------|---------------------------------|
                 E|-----------------|-----0----0----0----0---------|
=0D

VERSE
             P.M.---------------------|           P.M.-----------|       =
 =

=0D

d|----------------------------------3-----|----------------------21-----=
----0--|
=0D

a|----------------------------------3-----|----------------------21-----=
----0--|
=0D

E|--------------0----0----0-------------|-----0----0----0----------------=
-----|
=0D

PRE CHORUS                8 Times
=0D
           P.M.----------------|
       d|---------------------------5-----------(5)----|
       a|---------------------------5-----------(5)----|
       E|---------0----0----0--------------------------|
=0D

Chorus
=0D


e|-----------------------------------------------------------------------=
-----|
=0D
b|----5---------5---5-------5--------------------------------------------=
--|
=0D
g|----5---------3---3-------3--------------------------------------------=
--|
=0D
d|----5---------3---3-------3-------full-fullamp;rel------------------------=
|
      a|----3---------3---3-------3--------)----)
)------------------------|
      E|--------------------------------0--5----5
5--5-----3----0---0---|
=0D

Add this the last time of CHORUS
=0D
C5----------------C5--C5---------B5-|
=0D

I have the solo tabbed out , Im just too much of a lazy son of a bitch to=

write it out.  Beside , it aint that hard anyway.  I have STP , Metallica=
 ,
and more Kurt , so e-mail me for it at , =

                Simz 1 @ aol
     ( Im no fucking computer whiz either , so thats the best Address I c=
an
Give ya , Sorry )          =

=0D

--PART.BOUNDARY.0.8468.mail02.mail.aol.com.821922490--


Другие подборы этого исполнителя

Расскажи друзьям!




Привет, гитарист!

Пройди супер-курс по гитаре и порази всех своей игрой!

Забрать курс!
ВАМ ПОДАРКИ ОТ ПРОЕКТА
"ГИТАРНАЯ РЕВОЛЮЦИЯ"