Gitaristu.ru
Аккорды Табулатура Начинающим Мастер-класс Софт Видео
Новости Анонсы Гитары Гитаристы Статьи Аватарки Минусовки
Поиск



Популярные подборы




Настройка гитары






Главная > Аккорды > N > Nirvana

Аккорды
Nirvana
-
Smells like teen spirit1 (табулатура)

Не нашли аккорды к песне? Посмотрите на


Подбор прислал: gitaristu.ru


intro e-----------------|
      b-----------------|
      g---------x-x-x-x-|
      d--3-3-3--x-x-x-x-|
      a--3-3-3--x-x-x-x-|
      E--1-1-1--x-x-x-x-|x2(clean)x4(distortion)

 verse:
 e--1-----|
 b-1------|
 g--------|
 d--------|
 a--------|
 e--------|

 pre chorus:
  e---1--1--1--1-|
  b--1--1--1--1--|


 chorus:
 it's the same thing as the intro

 solo:
  g---8---10---8-8b-6-5-6-5----|
  d-10------6--------------8-6|
  
  d----8-8b-6-5---| x2  
 
then g----6-5-6-5-6-5|                  

Другие подборы этого исполнителя

Расскажи друзьям!




Привет, гитарист!

Пройди супер-курс по гитаре и порази всех своей игрой!

Забрать курс!
ВАМ ПОДАРКИ ОТ ПРОЕКТА
"ГИТАРНАЯ РЕВОЛЮЦИЯ"