Gitaristu.ru
Аккорды Табулатура Начинающим Мастер-класс Софт Видео
Новости Анонсы Гитары Гитаристы Статьи Аватарки Минусовки
Поиск



Популярные подборы




Настройка гитары






Главная > Аккорды > N > Nirvana

Аккорды
Nirvana
-
Smells like teen spirit (бас)

Не нашли аккорды к песне? Посмотрите на


Подбор прислал: gitaristu.ru


concerning smells like teen spirit, the first version written for this song
was missing a piece of it. this is fill that piece in.

Smells Like Teen Spirit
 by Nirvana
 bass line by Chris Novoselic

Intro:
G------------------------------------------------|
D----------------------------------------------o|
A------------1-1-1----------------4-4-4-0-o|
E-1-1-1-1----------3-4-4-4-4--------------|

Verse:
G----------------------------------------------|
D--------------------------------------------o|
A------------1-1-1--------------4-4-4----o|
E-1-1-1-1---------0-4-4-4-4---------0---|

Chorus:

G---------------------------------------|
D---------------------------------------|
A-------------------------------------o|
E-1--0-1-2-2---1--0-1-6-6-4-4--|

During Solo: Play the same line as the verse
The rest you should be able to figure out, its a really easy bass line...

Transcribed by Arrsenic@aol.com


Другие подборы этого исполнителя

Расскажи друзьям!




Привет, гитарист!

Пройди супер-курс по гитаре и порази всех своей игрой!

Забрать курс!
ВАМ ПОДАРКИ ОТ ПРОЕКТА
"ГИТАРНАЯ РЕВОЛЮЦИЯ"