Gitaristu.ru
Аккорды Табулатура Начинающим Мастер-класс Софт Видео
Новости Анонсы Гитары Гитаристы Статьи Аватарки Минусовки
Поиск



Популярные подборы




Настройка гитары






Главная > Аккорды > N > Nirvana

Аккорды
Nirvana
-
Smells like teen spirit (табулатура)

Не нашли аккорды к песне? Посмотрите на


Подбор прислал: gitaristu.ru



Date: Wed, 27 Sep 2000 11:35:12 -0400
From: The McNaughts 
From: J.Heppenstall 
Subject: n/nirvana/smells_like_teen_spirit.tab
Date: Fri, 31 May 2002 22:37:48 +0100


Song: Smells Like Teen Spirit
Artist: Nirvana
Album: Nevermind
Tabbed by: Craig McNaught 
	   Tedreigas 
Intro:


  Fsus4                     Bb

1------------------------------------------------|
2--------------------0---x---3----3---3---0---0--|
3--3----3---3----x---0---x---3----3---3---0---0--|
4--3----3---3----x---0---x---3----3---3---0---0--|
5--3----3---3----x-----------1----1---1----------|
6--1----1---1----x-------------------------------|


  Absus4                      Db
1------------------------------------------------|
2-----------------------------6---6--6--x--0-----|
3-(6)--(6)-(6)----------------6---6--6--x--0-----|
4--6----6---6----x--x--x--x---6---6--6--x--0-----|
5--6----6---6----x--x--x--x---4---4--4--x--------|
6--4----4---4----x--x--x--x----------------------|

  Fsus4                     Bb

1------------------------------------------------|
2--------------------0---x---3----3---3---0---0--|
3--3----3---3----x---0---x---3----3---3---0---0--|
4--3----3---3----x---0---x---3----3---3---0---0--|
5--3----3---3----x-----------1----1---1----------|
6--1----1---1----x-------------------------------|


  Absus4                      Db
1------------------------------------------------|
2-----------------------------6---6--6--x--0-----|
3-(6)--(6)-(6)----------------6---6--6--x--0-----|
4--6----6---6----x--x--x--x---6---6--6--x--0-----|
5--6----6---6----x--x--x--x---4---4--4--x--------|
6--4----4---4----x--x--x--x----------------------|=20

Gtr2

(After the Fsus4 chord is played, this fill comes in each time)

Fig 1
1----1---------|
2--1-----------|
3--------------|
4--------------|
5--------------|
6--------------|



F5      Bb5      Ab5      Db5       =20
Load 	...
F5            Bb5    Ab5      Db5    F5  etc...
friends, ...

	.......
	.......
	.......
	.......


Yay

Bridge:

   F5  E5   F5   Gb5 =20
              =20
1------------------------------|
2------------------------------|
3-----------------------3^-----|
4--3----2---3---4---4----------|
5--3----2---3---4---4----------|
6--1----0---1---2---2----------|
                        Yay

   F5   E5   F5   Bb5    Ab5

1----------------------------|
2----------------------------|
3----------------------------|
4--3-----2---3----8---8---6--|
5--3-----2---3----8---8---6--|
6--1-----0---1----6---6---4--|

   F5  E5   F5   Gb5 =20
              =20
1------------------------------|
2------------------------------|
3-----------------------3^-----|
4--3----2---3---4---4----------|
5--3----2---3---4---4----------|
6--1----0---1---2---2----------|
                        Yay

   F5   E5   F5   Bb5    Ab5   G5

1-----------------------------------|
2-----------------------------------|
3-----------------------------------|
4--3-----2---3----8---8---6-----5---|
5--3-----2---3----8---8---6-----5---|
6--1-----0---1----6---6---4-----3---|

Date: Wed, 15 Jan 2003 00:18:11 +0000
From: Jesse Anderson 
Subject: n/nirvana/smells_like_teen_spirit.tab

E:----------------------------------------------
B:----------------------------------------------
G:-----------8--10---------8^--8^9^8--6--5~~--
D:---///10------------/6~~~---------------------
A:----------------------------------------------
E:----------------------------------------------


E:----------------------------------------------
B:----------------------------------------------
G:--6--5----------------------------------------
D:--------8--6--8^--8^9^8--6--5~~~~-------------
A:----------------------------------------------
E:----------------------------------------------

           |REPEAT|


E:----------------------------------------------
B:----------------------------------------------
G:----------------------------------------------
D:--6--5~~--6--5~~~--6--5~~~--6--5~~~--6--5--53
A:----------------------------------------------
E:----------------------------------------------



|REPEAT 4 times, fourth time hold last note with vibrato|



  /=slide up
  =slide down
  ^=bend
  ^9=bend to pitch of ninth fret
  ~=vibrato

   questions  comments  email me moviemaster99@hotmail.com



Ending:

Fsus4      Bb     Ab5sus4      Db

...    my  libido,         a denial

a denial, a denial, a denial, a denial


Другие подборы этого исполнителя

Расскажи друзьям!




Привет, гитарист!

Пройди супер-курс по гитаре и порази всех своей игрой!

Забрать курс!
ВАМ ПОДАРКИ ОТ ПРОЕКТА
"ГИТАРНАЯ РЕВОЛЮЦИЯ"