Gitaristu.ru
Аккорды Табулатура Начинающим Мастер-класс Софт Видео
Новости Анонсы Гитары Гитаристы Статьи Аватарки Минусовки
Поиск



Популярные подборы




Настройка гитары






Главная > Аккорды > N > Nirvana

Аккорды
Nirvana
-
Spank thru (бас)

Не нашли аккорды к песне? Посмотрите на


Подбор прислал: gitaristu.ru


spank thru
nirvana

intro

g-----------------------------8--------------------------
d---8888---66--0----8888--66-------------------------------------------
a-------------------------------------------------------
e-------------------------------------------------------

                      I can mold it...
g-------------------------------------------------------
d--------------5----------5--------------------------------
a----------------5----------5-----------------------------
e-------0-0-3--------0-3----------------------------------------

                  solo
g------------------------------------------------------------
d--------5----------3------------------------------------------
a----------5----------3----------------------------------------
e----3-----------1---------------------------------------------


Другие подборы этого исполнителя

Расскажи друзьям!




Привет, гитарист!

Пройди супер-курс по гитаре и порази всех своей игрой!

Забрать курс!
ВАМ ПОДАРКИ ОТ ПРОЕКТА
"ГИТАРНАЯ РЕВОЛЮЦИЯ"