Gitaristu.ru
Аккорды Табулатура Начинающим Мастер-класс Софт Видео
Новости Анонсы Гитары Гитаристы Статьи Аватарки Минусовки
Поиск



Популярные подборы




Настройка гитары






Главная > Аккорды > N > Nirvana

Аккорды
Nirvana
-
Stay away (бас)

Не нашли аккорды к песне? Посмотрите на


Подбор прислал: gitaristu.ru



Date: Fri, 28 Jul 2000 04:10:34 -0400
From: Thiago Bastos Machado Filho 
Subject: n/nirvana/stay_away.btab


STAY AWAY(also called Pay To Play on other rarities, like Unhappy)
by: Nirvana
ALBUM:Nevermind

G.-----|----------------------------
D.DRUMS|-----------------3-3--------
A.INTRO|5-5--3b5-2-2---2----3--0-2-3
E.-----|----------------------------

Chorus(stay, stay away)
G.-------------------------------
D.-----------------3-3-3-3-3-----
A.5-5--3b5-2-2---2----------5-4-3
E.-------------------------------

Bridge(I don't know why)
G.-----------------------------------------------
D.--------------3--3b5-3-------------------------
A.5--5--5--3--5----------5-----3-----------3-----
E.-------------------------1-1--1-1-1--1-1--1-1-1

Ending
VERY FAST PICKS  DESTROY IT  
G.-----------------------------------------------
D.-----------------------------------------------
A.5-5-5-5-5-5-5-5-5-5-55-4-4-4-4-4-4-44-4-4-4-4-4
E.-----------------------------------------------

G.----------------------------------------------
D.----------------------------------------------
A.4-43-3-3-3-3-3-3-3-3-33-----------------------
E.-------------------------0-------0-----------0


/---------------------------------------- 
|  ____    ____                          |
| (    `--'  .-'               _T_T_T_T_ |
| |8| O  O  |||||||||||||||||||[o o o o/ | 
| (__,--.____                 `~~~`--'  |
|     Tabbed ny Nick Axe                 |
|            nick_axe@zipmail.com.br     |
|                                        |
----------------------------------------/


Другие подборы этого исполнителя

Расскажи друзьям!




Привет, гитарист!

Пройди супер-курс по гитаре и порази всех своей игрой!

Забрать курс!
ВАМ ПОДАРКИ ОТ ПРОЕКТА
"ГИТАРНАЯ РЕВОЛЮЦИЯ"