Gitaristu.ru
Аккорды Табулатура Начинающим Мастер-класс Софт Видео
Новости Анонсы Гитары Гитаристы Статьи Аватарки Минусовки
Поиск



Популярные подборы




Настройка гитары






Главная > Аккорды > N > Nirvana

Аккорды
Nirvana
-
Territorial pissings (табулатура)

Не нашли аккорды к песне? Посмотрите на


Подбор прислал: gitaristu.ru


                               By Kurt Cobain
  
  Hello there itos me again with this song from 
  Nirvana titled Territorial Pissings

  
  rhy.fig 1
  w/heavy distortion
  ------------------------------------------------              
  ------------------------------------------------
  ------------------------------------------------
  --7--7--7--7--7--7------------------------------
  --7--7--7--7--7--7----0-------------------------
  --5--5--5--5--5--5----0-------------------------


  ------------------------------------------------
  ------------------------------------------------
  --10--10--10--10--10--10--10--------------------
  --10--10--10--10--10--10--10--------------------
  --8---8---8---8---8---8---8-----0---------------
  --------------------------------0---------------

  
  ------------------------------------------------
  ------------------------------------------------
  ------------------------------------------------
  --12--12--12--12--12--12--12--12----------------
  --12--12--12--12--12--12--12--12----------------
  --10--10--10--10--10--10--10--10----------------

  ------------------------------------------------
  ------------------------------------------------
  ------------------------------------------------
  --12--12--12--12--12--12--12--12----------------
  --12--12--12--12--12--12--12--12----0-----------
  --10--10--10--10--10--10--10--10----0-----------


  w/rhy.fig 1
  When I was ....(etc.)

  Instrumental Interlude
  PM---]    PM----]           
  -------------------------------------------------
  -------------------------------------------------
  -------------------------------------------------
  -------------------------------------------------
  --------7---------7------------------------------ X6
  --5--5--5---5--5--5------------------------------

  PM----] 
  -------------------------------------------------
  ------------7------------------------------------
  ---------------7---------------------------------
  ------------------7------------------------------
  --------7------------7---------------------------
  --5--5--5------------5---------------------------


  w/feedback
  Just because ....
  
  w/rhy.fig 1
  Gotta find ....(etc.)


Другие подборы этого исполнителя

Расскажи друзьям!




Привет, гитарист!

Пройди супер-курс по гитаре и порази всех своей игрой!

Забрать курс!
ВАМ ПОДАРКИ ОТ ПРОЕКТА
"ГИТАРНАЯ РЕВОЛЮЦИЯ"