Gitaristu.ru
Аккорды Табулатура Начинающим Мастер-класс Софт Видео
Новости Анонсы Гитары Гитаристы Статьи Аватарки Минусовки
Поиск



Популярные подборы




Настройка гитары






Главная > Аккорды > N > Nirvana

Аккорды
Nirvana
-
Very ape (бас)

Не нашли аккорды к песне? Посмотрите на


Подбор прислал: gitaristu.ru



Date: Thu, 14 Nov 2002 17:41:26 -0500
From: Zach Ginsburg 
Subject: n/nirvana/very_ape.btab

Very Ape
by Nirvana
Album: In Utero
Track 7
Geffen Records
Written by: Kurt Cobain

*This was my own work. I did not copy from anyone*

Sorry, about that last one.  This one sounds better.

Normal Tuning (G,D,A,E)

Start after 4 measures (same time as harmonic guitar and drums)



Verse:

G--------------------------------
D--------------------------------
A--------------------------------
E---2/44-2/55-------------------- [repeat until pre-chorus]

Pre-Chorus:

G--------------------------------
D--------------------------------
A--------------------------------
E---2-2-2-2-0-0-0-0-------------- [repeat until chorus]

Chorus:

G--------------------------------
D--------------------------------
A----------2/5--5----------------
E---4---4-----------2-4-2-2-2----

There are other variations but this is the one off In Utero

I'm very ape and very nice 

-zg


Другие подборы этого исполнителя

Расскажи друзьям!




Привет, гитарист!

Пройди супер-курс по гитаре и порази всех своей игрой!

Забрать курс!
ВАМ ПОДАРКИ ОТ ПРОЕКТА
"ГИТАРНАЯ РЕВОЛЮЦИЯ"