Gitaristu.ru
Аккорды Табулатура Начинающим Мастер-класс Софт Видео
Новости Анонсы Гитары Гитаристы Статьи Аватарки Минусовки
Поиск



Популярные подборы




Настройка гитары






Главная > Аккорды > N > Nirvana

Аккорды
Nirvana
-
With The Lights Out Disc 1 (табулатура)

Не нашли аккорды к песне? Посмотрите на


Подбор прислал: gitaristu.ru
This is a fairly complete tab of the first disc of "WITH THE LIGHTS OUT", the new
Nirvana Box Set. I did not include the lyrics or solos because most tracks are live
and its hard to hear. I did not tab a chord being played more than three times, so
if its over that you have to figure out the strums yourself.Ill do next disc soon.
Anyway, enjoy and RIP Kurdt Kobain (Kurt Cobain).


DISC 1- 1987-1989

1. Heartbreaker (written by Led Zeppelin)
Intro riff 1
e|----------------------------------------|
B|----------------------------------------|
G|----------------------------------------|
D|-------0-1-2-------------------0-1-2----|
A|-0-3~~~-----------0-0-0-0-3~~~----------|
E|-------------3------------------------3-|

Intro riff 2
e|----------------------------------------|
B|----------------------------------------|
G|-------0-1-2-------------------0-1-2----|
D|-0-3~~~-----------0-0-0-0-3~~~----------|
A|-------------3------------------------3-|
E|----------------------------------------|

Verse
e|-----------|
B|-----------|
G|-2---5-----|
D|-2---5-----|
A|-0---3-----|
E|-----------|

2. Anorexcorcist
->Drop D tuning

Main riff
e|------ ||repeat four times, gradually lifting the P.M.
B|------.||
G|------ ||
D|------.||
A|-2-1-0 ||
D|-2-1-0 ||
PM..........

Riff 2
e|--------------|
B|-0-0-0--------|
G|-3-3-3--3-3-3-|
D|--------------|
A|--------------|
D|--------------|

Riff 3
e|-----------------------------------|
B|-----------------------------------|
G|-----------------------------------|
D|-----------------------------------|
A|-0-2-3-8---------0-2-3-8--6--2-1-0-|
D|-0-2-3-8---------0-2-3-8--6--2-1-0-|

3.White Lace And Strange
->Now comes the time to tell you about my Eb tuning tabs. Well, what I do to put my
Epiphone Les Paul a 

Другие подборы этого исполнителя

Расскажи друзьям!




Привет, гитарист!

Пройди супер-курс по гитаре и порази всех своей игрой!

Забрать курс!
ВАМ ПОДАРКИ ОТ ПРОЕКТА
"ГИТАРНАЯ РЕВОЛЮЦИЯ"