Gitaristu.ru
Аккорды Табулатура Начинающим Мастер-класс Софт Видео
Новости Анонсы Гитары Гитаристы Статьи Аватарки Минусовки
Поиск



Популярные подборы




Настройка гитары






Главная > Аккорды > N > Nirvana

Аккорды
Nirvana
-
You Know Youre Right

Не нашли аккорды к песне? Посмотрите на


Подбор прислал: gitaristu.ru
(строй гитары : опустить на полтона вниз) 


Intro: E*, F5 (x10) (см. табулатуру Riff1)

E*     F5        E*       F5
I will never bother you
I will never promise to 
I will never follow you 
I will never bother you 

D5 (V) (см. Riff2)
Never speak a word again 
E5 (VII)
I will crawl away for good 

E*     F5        E*       F5
I won't move away from here 
You wont be afraid of fear 
No thought was put into this 
I always knew it would come to this 

D5 (V) (см. Riff3)
Things have never been so swell 
E5 (VII)
I have never failed to fail

E*, F5
Pain [x3]  (см. Riff4)
D5, E5
You Know you're Right [x3]

I'm so warm and calm inside 
I no longer have to hide 
Let's talk about someone else 
Steaming soup against her mouth 
Nothing really bothers her 
She just wants to love herself 

I will move away from here 
You wont be afraid of fear 
No thought was put into this 
I always knew to come like this 

Things have never been so swell 
I have never failed to fail
Pain [x5]

You know You're Right [x17]

 Riff1
I will never bother you... 
e |---------------------------| 
B|----------------------------| 
G|----------------------------| 
D|---------------4-------4----| 
A|------------4-4-------4-----| 
E|----0h2-2-------0-0---------|

Riff2
e|-----------------------------------------| 
B|-----------------------------------------| 
G|----7---7--7777--7-7---9--9--9999--------| 
D|----7---7--7777--7-7---9--9--9999--------| 
A|----5---5--5555--5-5---7--7--7777--------| 
E|-----------------------------------------|

Riff3
e|----------------------------------------------------| 
B|-----------7--------7-------------9-------9---------| 
G|-------------7--------7-------------9-------9-------| 
D|--------7---------------7------9--------------9-----| 
A|-----5----------5---------5/7----------7---------7-- 
E/----------------------------------------------------|

Riff4
hey...
 e|------------------------------------------------| 
B|-------------------------------------------------|
G|-------------------------------------------------| 
D|------------------------4------4------4----4-4-4-| 
A|-------5/105-----------4------4------4----4-4-4-| 
E|----------------------0h2------2-----2u----0-0-0-| 

e|-----------------------------------------| 
B|-----------------------------------------| 
G|----7---7--7777--7-7---9--9--9999--------| 
D|----7---7--7777--7-7---9--9--9999--------| 
A|----5---5--5555--5-5---7--7--7777--------| 
E|-----------------------------------------|

U = bend up
H = hammer on

Другие подборы этого исполнителя

Расскажи друзьям!




Привет, гитарист!

Пройди супер-курс по гитаре и порази всех своей игрой!

Забрать курс!
ВАМ ПОДАРКИ ОТ ПРОЕКТА
"ГИТАРНАЯ РЕВОЛЮЦИЯ"