Gitaristu.ru
Аккорды Табулатура Начинающим Мастер-класс Софт Видео
Новости Анонсы Гитары Гитаристы Статьи Аватарки Минусовки
Поиск



Популярные подборы




Настройка гитары






Главная > Аккорды > N > Nirvana

Аккорды
Nirvana
-
You know youre right (аккорды)

Не нашли аккорды к песне? Посмотрите на


Подбор прислал: gitaristu.ru



Date: Fri, 11 Oct 2002 12:34:41 -0400
From: J p 
Date: Sat, 25 Jan 2003 19:24:13 +0100
From: Manuel Burkhardt 
Subject: n/nirvana/you_know_youre_right.crd

Verses
(Palm mute the low E string and tap into F Barre Chord

  E F5  F5    E  F5   E  F5   F5

E-------1--------1-------1----1-------------------------|
B-------1--------1-------1----1-------------------------|
G-------1--------1-------1----1-------------------------|
D-------3--------3-------3----3-------------------------|
A-------3--------3-------3----3-------------------------|
E--0/1--1-----0--1----0--1----1-------------------------|

I will never bother you^Е

      C# (Strum Rhythmically) D#

E-----4----------------------6--------------------------------------|
B-----4----------------------6--------------------------------------|
G-----6----------------------8--------------------------------------|
D-----6----------------------8--------------------------------------|
A-----4----------------------6--------------------------------------|
E-------------------------------------------------------------------|

  Never speak ...

  E F5  F5    E  F5   E  F5   F5

E-------1--------1-------1----1-------------------------|
B-------1--------1-------1----1-------------------------|
G-------1--------1-------1----1-------------------------|
D-------3--------3-------3----3-------------------------|
A-------3--------3-------3----3-------------------------|
E--0/1--1-----0--1----0--1----1-------------------------|

I will ...

      C#                             D#

E-----4------------------------------6----------------------------|
B-----4------------------------------6----------------------------|
G-----6------------------------------6----------------------------|
D-----6------------------------------8----------------------------|
A-----4------------------------------6----------------------------|
E-----------------------------------------------------------------|

   Things ...

      F         C# D#                F

E-----1---------4--6----------------1-------------------------------|
B-----1---------4--6----------------1-------------------------------|
G-----1---------6--8----------------1-------------------------------|
D-----3---------6--8----------------3-------------------------------|
A-----3---------4--6----------------3-------------------------------|
E-----1-----------------------------1-------------------------------|

    Pain [2x]   Pain  You Know your Right [3x]

After that it goes into the second verse


The second verse is the same as the first^Е except he says Pain 5 times
instead of 2.  same progression though.


Другие подборы этого исполнителя

Расскажи друзьям!




Привет, гитарист!

Пройди супер-курс по гитаре и порази всех своей игрой!

Забрать курс!
ВАМ ПОДАРКИ ОТ ПРОЕКТА
"ГИТАРНАЯ РЕВОЛЮЦИЯ"