Gitaristu.ru
Аккорды Табулатура Начинающим Мастер-класс Софт Видео
Новости Анонсы Гитары Гитаристы Статьи Аватарки Минусовки
Поиск



Популярные подборы




Настройка гитары






Главная > Аккорды > N > Nirvana

Аккорды
Nirvana
-
You know youre right (табулатура)

Не нашли аккорды к песне? Посмотрите на


Подбор прислал: gitaristu.ru



Date: Wed, 26 Mar 2003 10:21:40 +1030
From: mitrya@mannumhs.sa.edu.au
Subject: n/nirvana/you_know_youre_right.tab

Song : You Know You^Тre Right
Artist : Nirvana
Album : The Best Of
Tabbed by Ryan Mitchell

This song is quite difficult to play and even harder to tab. The other tabs are shockin^Т. This tab uses the correct chords and if you listen to the CD you should get it right. Not sure about the order though, haven^Тt played it for a while.

Dropped D tuning.

Intro / Main Riff.
E ---------------------------------
B ---------------------------------
G ---------------------------------
D 1-h3-3-3-3-3-3-1-1-h3-3-3-3-3-3--
A 1-h3-3-3-3-3-3-1-1-h3-3-3-3-3-3--
D 1-h3-3-3-3-3-3-1-1-h3-3-3-3-3-3--


Riff 1:
    C#5		D#5
E ---------------------------------
B ---------------------------------
G 6-6-6-6-6-6-6-6-8-8-8-8-8-8-8-8--
D 6-6-6-6-6-6-6-6-8-8-8-8-8-8-8-8--
A 4-4-4-4-4-4-4-4-6-6-6-6-6-6-6-6--
D ---------------------------------

Riff 2:
    C#5		             D#5
E ----------------------------------------------------
B ----------------------------------------------------
G ------6------------6--------------8-----------8-----
D ---6-----6------6-----6-------8-----8------8-----8--
A 4------------4-------------6------------6-----------
D ----------------------------------------------------


Intro / Main Riff  x8 ^Ц palm muted
Riff 1 - with distortion
Intro / Main Riff x8 ^Ц palm muted
Riff 2
Riff 1 - with distortion
Intro / Main Riff x8 - with distortion
Riff 2
Riff 1 ^Ц with distortion
Intro / Main Riff x10 ^Ц with distortion

---
mitrya@mannumhs.sa.edu.au
http://www.mannumhs.sa.edu.au/


Другие подборы этого исполнителя

Расскажи друзьям!




Привет, гитарист!

Пройди супер-курс по гитаре и порази всех своей игрой!

Забрать курс!
ВАМ ПОДАРКИ ОТ ПРОЕКТА
"ГИТАРНАЯ РЕВОЛЮЦИЯ"