Gitaristu.ru
Аккорды Табулатура Начинающим Мастер-класс Софт Видео
Новости Анонсы Гитары Гитаристы Статьи Аватарки Минусовки
Поиск



Популярные подборы




Настройка гитары






Главная > Аккорды > O > Oktoberklub

Аккорды
Oktoberklub
-
Was Wollen Wir Trinken (табулатура)

Не нашли аккорды к песне? Посмотрите на


Подбор прислал: gitaristu.ru
Oktoberklub - Was wollen wir trinken

Intro:

e|-------------------------------------------------------------|
B|-3-3-0-1---------3-3-1-0---3-3-0-1-----0---------------------|
G|---------2---0-2-------------------2-----0-2-----------------|
D|-------------------------------------------------------------|	:|
A|-------------------------------------------------------------|
E|-------------------------------------------------------------|
	
e|-------0-0-1---0---------------------------------------------|
B|---1-3-------3-----3-3-0-1-------3-3-1-0---3-3-0-1-----0-----|
G|-2-------------------------2-0-2-------------------2-----0-2-|
D|-------------------------------------------------------------|	:|
A|-------------------------------------------------------------|
E|-------------------------------------------------------------|


Strophe 1:
	       Am	                 G
Was wollen wir trinken, dieser Kampf war lang,
	       F	    G      Am
was wollen wir trinken, auf diesen Sieg.	:|
         C           F    C
am Roten Platz steht Corvalan,
           Am                     G 
auf unsere Sache st
Расскажи друзьям!




Привет, гитарист!

Пройди супер-курс по гитаре и порази всех своей игрой!

Забрать курс!
ВАМ ПОДАРКИ ОТ ПРОЕКТА
"ГИТАРНАЯ РЕВОЛЮЦИЯ"