Gitaristu.ru
Аккорды Табулатура Начинающим Мастер-класс Софт Видео
Новости Анонсы Гитары Гитаристы Статьи Аватарки Минусовки
Поиск



Популярные подборы




Настройка гитары






Главная > Аккорды > Q > Queen

Аккорды
Queen
-
Brighton Rock (3)

Не нашли аккорды к песне? Посмотрите на


Подбор прислал: gitaristu.ru
intro solo from Live At The Wembley

|----------------------------------------|                   |----------------|
|----------------------------------------|bass               |----------------|
|-9b11_r9p7-9-----9b11_r9p7--------------|-------------------|----------------|
|---------------------------9-7----------|--9-7---------___--|----------------|
|-------------------------------9-8-75b-|-----9-7-5-4-5p4-2-|-0h2-0----------|
|----------------------------------------|-------------------|-------2-1-0tr--|

|--------------------------------------------------------------|
|--------------------------------------------------------------|
|-------------7-9------------------7------------------------7b-|
|-----------------_______-----7-9----10b__12vr_10--7-8-9-------|
|-----0-2-2---5-7-7h8p7p5-7/9----------------------------------|
|-0-2----------------------------------------------------------|

|--------------------------------------------------------------------------|
|--------------------------------------------------------------------------|
|-9b11__r9p7-----9--7------------------------------------------------------|
|------------9---------9--7v--9----___-------------------------------------|
|----------------------------------9p7----7-5---7-5b---------5-7h8p7p5-7---|
|---------------------------------------------7------7-5-6-7---------------|

|-----------------------------------------------------------------------------|
|-----------------------------------------------------------------------------|
|-----7------7--6-----------7---6------------7--8--7--6-------------------7b--|
|-79---9v----------7-9-6------9----6-9-6---9-------------9--6--7--8--9v-------|
|-----------------------------------------------------------------------------|
|-----------------------------------------------------------------------------|

|---------------------------------------------------------------------------|
|-______---7-10-9-8-7-------------------------------------------------------|
|-11r9p7-9------------10-9-7------------------------------------------------|
|----------------------------9-7--------------------------------_______-----|
|--------------------------------9-8-7-5---7---5b-------------5-7h8p7p5-7---|
|----------------------------------------7---7-----7----5-6-7---------------|

|----------------------------------------------------|
|----------------------------------------------------|
|---------------------------------6-7-9-10-10b_11vv--|
|-----7-9---------------------7-9--------------------|
|-7-9-----------------5-7-8-9------------------------|
|---------7v----5-6-7--------------------------------|


Другие подборы этого исполнителя

Расскажи друзьям!




Привет, гитарист!

Пройди супер-курс по гитаре и порази всех своей игрой!

Забрать курс!
ВАМ ПОДАРКИ ОТ ПРОЕКТА
"ГИТАРНАЯ РЕВОЛЮЦИЯ"