Gitaristu.ru
Аккорды Табулатура Начинающим Мастер-класс Софт Видео
Новости Анонсы Гитары Гитаристы Статьи Аватарки Минусовки
Поиск



Популярные подборы




Настройка гитары






Главная > Аккорды > Q > Queso

Аккорды
Queso
-
Steve bass (табулатура)

Не нашли аккорды к песне? Посмотрите на


Подбор прислал: gitaristu.ru
Title:Steve
Band:queso
Tabbed by:Julius by Zephra Side Project
Tuning:Drop D

Intro:

G -------------------------|4x
D -------------------------|
A ----------------2--------|
D --7-7-7-7/5-5-3---3--1---|

          Then
G -----------------------|
D -----------------------|
A ----2------------------|
D --3---3-1--1--1--1--1--|

Verse:

I created sins upun my self!....
G ----------------------------------|
D ----------------------------------|4x
A -------4-----------2-------4------|
D -0-2-3---3-2-0-2-3---3-2-0---3-2--|

Come with me...
G -----------|
D -----------|
A -----------|
D -0-1-1-0---|

Silence resonates within my desolation!
G ----------------------------------|
D ----------------------------------|4x
A -------4-----------2-------4------|
D -0-2-3---3-2-0-2-3---3-2-0---3-2--|

Crawl inside...
G -----------|
D -----------|
A -----------|
D -0-1-1-0---|

Take me back, set me free from my fears!...
G ----------------------------------|
D ----------------------------------|4x
A -------4-----------2-------4------|
D -0-2-3---3-2-0-2-3---3-2-0---3-2--|

Lord... have found you...
G ----------------------------|
D ----------------------------|2x
A --5-4-----------------------|
D ------5-5-5-5--0-2-5-5-5-5--|


Interlude:

D -------------------------------------------|
G -------------------------------------------|4x
A -------------------------------------------|
D --0--------/12------0----------\12---------|

Verse:

Take me back set me free from my fears...
G ----------------------------------|
A ----------------------------------|8x
A -------4-----------2-------4------|
D -0-2-3---3-2-0-2-3---3-2-0---3-2--|

Drum solo


Lord... have found you...
G ----------------------------|
D ----------------------------|2x
A --5-4-----------------------|
D ------5-5-5-5--0-2-5-5-5-5--|


Interlude:

D -------------------------------------------|
G -------------------------------------------|4x
A -------------------------------------------|
D --0--------/12------0-------\12--000-0-----|

END...

Hi nga pla s mga zephra boy's kuya jay elow kyla pepito din..
         
Расскажи друзьям!




Привет, гитарист!

Пройди супер-курс по гитаре и порази всех своей игрой!

Забрать курс!
ВАМ ПОДАРКИ ОТ ПРОЕКТА
"ГИТАРНАЯ РЕВОЛЮЦИЯ"