Gitaristu.ru
Аккорды Табулатура Начинающим Мастер-класс Софт Видео Форум Блог
Новости Анонсы Гитары Гитаристы Статьи Аватарки Минусовки
Поиск





Популярные подборы




Настройка гитары






Главная > Аккорды > R > Rammstein

Аккорды
Rammstein
-
Adios (2 вариант)

Не нашли аккорды к песне? Посмотрите на


Подбор прислал: gitaristu.ru
 Intro
 
E|-------------------------------------------------------------|
B|-------------------------------------------------------------|
G|-------------------------------------------------------------|
D|--8--8--8--8---12--12--12---10---12--12--12--12--12--10------|
A|--8--8--8--8---12--12--12---10---12--12--12--12--12--10------|
E|--6--6--8--6---10--10--10----8---10--10--10--10--10--8-------|

D|--8--8--8--8----12--12--12----10----12--12--12--12--12-------|
A|--8--8--8--8----12--12--12----10----12--12--12--12--12-------|
E|--6--6--8--6----10--10--10-----8----10--10--10--10--10-------|

E|-------------------------------------------------------------|
B|--8h6--------------------3--------------------3--------------|


 Riffa (2 раза)
E|----------------------------------------|
B|----------------------------------------|
G|-3-5-7--------------57---------------57-|-
D|-3-5-7--------------57---------------57-|-
A|-1-3-5--5-5-5-5-5-5-35-5-5-5-5-5-5-5-35-|-

G|-----------------3-5-7-|
D|-----------------3-5-7-|
A|-5-5-5-5-5-5-5-5-1-3-5-|

Er legt die Nadel auf die Ader
und bittet die Musik herein
zwischen Hals und Unterarm
die Melodie fahrt leise ins Gebein

 Riffb(3 раза)
G|-3-5-7-|
D|-3-5-7-|
A|-1-3-5-|

 Идет проигрыш Riffa

Er hat die Augen zugemacht

in seinem Blut tobt eine Schlacht
ein Heer marschiert durch seinem Darm
die Eingeweide werden langsam warm


 Riffb(3 раза)
G|-3-5-7-|
D|-3-5-7-|
A|-1-3-5-|

 Проигрыш Riffa

Nichts ist fur dich
nichts war fur dich
nichts bleibt fur dich
fur imme

E|--------------------------|
B|--------------------------|
G|--------------------------|
D|-8-8-8-8---12-12-12---10--|
A|-8-8-8-8---12-12-12---10--|
E|-6-6-8-6---10-10-10----8--|

Nichts ist fur dich
nichts war fur dich
nichts bleibt fur dich
fur immer
2 раз

G|-3-3-3-3--7-7-7--5--7-7-7-7-7---5---3-3-3-3-|
D|-3-3-3-3--7-7-7--5--7-7-7-7-7---5---3-3-3-3-|
A|-1-1-1-1--5-5-5--3--5-5-5-5-5---3---1-1-1-1-|

2 раза

E|------------------------------------|
B|--9-10-10--9-10-10-9-10-10--10-9-8--|

E|------------------------------------|
B|--9-10-10--9-10-10-9-10-10-10-9-8--8|

E|--------------------------------|
B|--10-9-8--8-9-10--10-9-8--8-9-10|

E|--------------------------------|
B|--9-1010--9-1010-9-101010-9-8--8|

Er nimmt die Nadel von der Ader
die Melodie fahrt aus der Haut
Geigen brennen mit Gekreisch
Harfen schneiden sich ins Fleisch
er hat die Augen aufgemacht
doch er ist nicht aufgewacht

Nichts ist fur dich
nichts war fur dich
nichts bleibt fur dich
fur immer

G|-3-3-3-3--7-7-7--5--7-7-7-7-7---5---3-3-3-3-|
D|-3-3-3-3--7-7-7--5--7-7-7-7-7---5---3-3-3-3-|
A|-1-1-1-1--5-5-5--3--5-5-5-5-5---3---1-1-1-1-|

 В самом конце
G|-3-3-3-3--5-5-5--5--5-|
D|-3-3-3-3--5-5-5--5--5-|
A|-1-1-1-1--7-7-7--3--7-|


Расскажи друзьям!




Войдите, используя Ваш аккаунт:



Забыли пароль?
Зарегистрироваться

Привет, гитарист!

Пройди супер-курс по гитаре и порази всех своей игрой!

Забрать курс!
ВАМ ПОДАРКИ ОТ ПРОЕКТА
"ГИТАРНАЯ РЕВОЛЮЦИЯ"