Gitaristu.ru
Аккорды Табулатура Начинающим Мастер-класс Софт Видео Форум Блог
Новости Анонсы Гитары Гитаристы Статьи Аватарки Минусовки
Поиск





Популярные подборы




Настройка гитары






Главная > Аккорды > R > Rammstein

Аккорды
Rammstein
-
Benzin (табулатура)

Не нашли аккорды к песне? Посмотрите на


Подбор прислал: gitaristu.ru



Date: Fri, 07 Apr 2006 14:04:59 +0200
From: Matic Samobor 
Subject: r/rammstein/benzin.tab

Band: Rammstein
Album: Rosenrot
Song: Benzin


Tabber: Matic Samobor Gerl



.  - palm mute           /  - slide up to
  - slide down to       ~  - vibrato
h  - hammer on           b  - Bend
p  - pull off            Suffixes for bend
t  - tap                 f  - full bend    h - half bend
ph - pinched harmonic    q  - quarter bend t - tap bend
*  - see comment         ^  - Hold bend    r release bend
x  - Stuccatto           ~  - vibrato bend
,  - slight palm mute    () - ghost note, sustained note
  - tremolo note         - Trill


Tuning: Drop C (CGCFAD)


Intro - guitar 2  (clean)       

D | --------------------------------------------------|
A | --------------------------------------------------|
F | 2----1----2----1----1/5----2----1----2----1-------|
C | -----------------------------------------------0--|
G | --------------------------------------------------|
C | --------------------------------------------------|


Intro 2, Verse - guitar 2  (clean)

D | -------------------------------------------------------------|
A | -------------------------------------------------------------|
F | 2-2-2-2-2-2-2-1--1-1-1--1-1-1-2-2-2-2-2-2-2-1--1-1-1-1/5-5-5-|
C | -------------------------------------------------------------|
G | -------------------------------------------------------------|
C | -------------------------------------------------------------|



D | ----------------------------------------------------|
A | ----------------------------------------------------|
F | 2-2-2-2-2-2-2-1--1-1-1--1-1-1-2-2-2-2-2-2-2-1-------|
C | -------------------------------------------------0--|
G | ----------------------------------------------------|
C | ----------------------------------------------------|



Main riff - guitar 1  (heavy metal dist.)

D | -------------------------------|
A | -------------------------------|
F | -------------------------------|
C | 00000000000000000000000000000--|
G | 00000000000000000000000000000--|
C | 00000000000000000000000000000--|


Between the main riff, the guitar 2 plays the intro 2 with a little bit 
more dist.



Refrain - guitar 1 amp; 2 

D | -----------------------------------------------|
A | -----------------------------------------------|
F | -----------------------------------------------|
C | --0----1----0---0-0-0-1--2-----0----1----1---2-|
G | --0----1----0---0-0-0-1--2-----0----1----1---2-|
C | --0----1----0---0-0-0-1--2-----0----1----1---2-|



Intro 
Intro 2 
Main riff -  2x
Verse -  2x
Refrain
Verse
Refrain -  2x
Main riff - 2x
Intro -  2x
Main riff
Refrain 
Main riff

____________________


Расскажи друзьям!




Войдите, используя Ваш аккаунт:



Забыли пароль?
Зарегистрироваться

Привет, гитарист!

Пройди супер-курс по гитаре и порази всех своей игрой!

Забрать курс!
ВАМ ПОДАРКИ ОТ ПРОЕКТА
"ГИТАРНАЯ РЕВОЛЮЦИЯ"