Gitaristu.ru
Аккорды Табулатура Начинающим Мастер-класс Софт Видео Форум Блог
Новости Анонсы Гитары Гитаристы Статьи Аватарки Минусовки
Поиск





Популярные подборы




Настройка гитары






Главная > Аккорды > R > Rammstein

Аккорды
Rammstein
-
Bestrafe Mich bass (табулатура)

Не нашли аккорды к песне? Посмотрите на


Подбор прислал: gitaristu.ru
-------------------------------------------------------------------------------
			     Bestrafe Mich - Rammstein
-------------------------------------------------------------------------------

Tabbed By : AstroZombie (Antero Sosa)
e-mail: astrozombie138@gmail.com

Tuning: Drop D

(Intro) Riff 1
G|----------------------------|
D|----------------------------|
A|--2---------2--------2------|
D|------2-2------2-2------2---|

(Intro) Riff 2
G|----------------------------|
D|----------------------------|
A|--3---------3--------3------|
D|------2-2------2-2------2---|


Intro:
Riff 1 x2
Riff 2 
Riff 1
Riff 2
Riff 1


Then...

(Riff 3)
G|------------------------------------------------------------|
D|------------------------------------------------------------|
A|------------------------------------------------------------|
D|--3-3-2--2--2----3-3-2--2--2----3-3-2--2--2----5-2-2--2-2---|

G|--------------------------------------------------------------------|
D|--------------------------------------------------------------------|
A|--------------------------------------------------------------------|
D|--3-3-2--2--2----3-3-2--2--2----3-3-2--2--2----5-5-2-2----5-5-2-2---|


Guitars...



(Riff 4) x4(Last Time Don't Play Last Two Notes)
G|----------------------------------|
D|----------------------------------|
A|----------------------------------|    
D|--2--2--2--2--2--2--2--2--2-1-0---|


Repeat Intro, Riff 3, Riff 4


Repeat Intro, Pause, Riff 3, Keyboard Solo


Keep Repeating Intro



(Last Riff)
G|-------------------------------|
D|-------------------------------|
A|-------------------------------|    
D|--3-2-3-2--5-5--2-2--5-5--2-2--|



| /  slide up
| \  slide down
| h  hammer-on
| p  pull-off
| ~  vibrato
| +  harmonic
| x  Mute note
===============================================================================
Расскажи друзьям!




Войдите, используя Ваш аккаунт:



Забыли пароль?
Зарегистрироваться

Привет, гитарист!

Пройди супер-курс по гитаре и порази всех своей игрой!

Забрать курс!
ВАМ ПОДАРКИ ОТ ПРОЕКТА
"ГИТАРНАЯ РЕВОЛЮЦИЯ"