Gitaristu.ru
Аккорды Табулатура Начинающим Мастер-класс Софт Видео Форум Блог
Новости Анонсы Гитары Гитаристы Статьи Аватарки Минусовки
Поиск





Популярные подборы




Настройка гитары






Главная > Аккорды > R > Rammstein

Аккорды
Rammstein
-
Du Hast (4 вариант)

Не нашли аккорды к песне? Посмотрите на


Подбор прислал: gitaristu.ru
 Intro

1|--------------|---------------|--------------|---------------|
2|--------------|---------------|--------------|---------------|
3|--------------|---------------|--------------|---------------|
4|-7-5-2-2-22-2-|-75-2-2-22--22-|-7-5-2-2-22-2-|-75-2-2-222-22-|
5|-7-5-2-2-22-2-|-75-2-2-22--22-|-7-5-2-2-22-2-|-75-2-2-222-22-|
6|-5-3-0-0-00-0-|-53-0-0-00--00-|-5-3-0-0-00-0-|-53-0-0-000-00-|

1|---------------|------------------|--------------------------|
2|---------------|------------------|--------------------------|
3|---------------|------------------|--------------------------|
4|-7-5-2-2-222-2-|-75-2-2-222--2222-|-5-7--7-7-777-7777--------|
5|-7-5-2-2-222-2-|-75-2-2-222--2222-|-5-7--7-7-777-7777--------|
6|-5-3-0-0-000-0-|-53-0-0-000--0000-|-3-5--5-5-555-5555--------|

Du
Du hast
Du hast mich
Du
Du hast
Du hast mich
Du
Du hast
Du hast mich
Du
Du hast
Du hast mich

 Riff

6|-0-0-0-0-0-0-3-0-0-0-0-0-3-0-0-0-0-0-0-5-3-0-0-0-3-0-0-0-----|

1|--------------|----------------|--------------|--------------|
2|--------------|----------------|--------------|--------------|
3|--------------|----------------|--------------|--------------|
4|-7-5-2-2-22-2-|-75-2-2-22--222-|-7-5-2-2-22-2-|-75-2-2-22-22-|
5|-7-5-2-2-22-2-|-75-2-2-22--222-|-7-5-2-2-22-2-|-75-2-2-22-22-|
6|-5-3-0-0-00-0-|-53-0-0-00--000-|-5-3-0-0-00-0-|-53-0-0-00-00-|

1|---------------|------------------|--------------------------|
2|---------------|------------------|--------------------------|
3|---------------|------------------|--------------------------|
4|-7-5-2-2-222-2-|-75-2-2-222--2222-|-5-7--7-7-777-7777--------|
5|-7-5-2-2-222-2-|-75-2-2-222--2222-|-5-7--7-7-777-7777--------|
6|-5-3-0-0-000-0-|-53-0-0-000--0000-|-3-5--5-5-555-5555--------|

Du
Du hast
Du hast mich
Du hast mich
Du hast mich gefragt
Du hast mich gefragt
Du hast mich gefragt und ich hab nichts gesagt

Willst du bis der Tod euch scheidet
treu ihr sein fur alle Tage...
nein! nein!
Willst du bis der Tod euch scheidet
treu ihr sein fur alle Tage...
nein! nein!

1|---------------|------------------|--------------------------|
2|---------------|------------------|--------------------------|
3|---------------|------------------|--------------------------|
4|-7-5-2-2-222-2-|-75-2-2-222--2222-|-5-7--7-7-777-7777--------|
5|-7-5-2-2-222-2-|-75-2-2-222--2222-|-5-7--7-7-777-7777--------|
6|-5-3-0-0-000-0-|-53-0-0-000--0000-|-3-5--5-5-555-5555--------|

1|-------------------|-----------------------------------------|
2|-------------------|-----------------------------------------|
3|-------------------|-----------------------------------------|
4|-5-7--7-7-777-7777-|-5-10--10-10-101010-10101010-------------|
5|-5-7--7-7-777-7777-|-5-10--10-10-101010-10101010-------------|
6|-3-5--5-5-555-5555-|-3-8----8--8--8-8-8--8-8-8-8-------------|

1|-------------------|-----------------------------------------|
2|-------------------|-----------------------------------------|
3|-------------------|-----------------------------------------|
4|-5-9--9-9-999-9999-|-7-5-2-2-222-2-|-75-2-2-222-2222---------|
5|-5-9--9-9-999-9999-|-7-5-2-2-222-2-|-75-2-2-222-2222---------|
6|-3-7--7-7-777-7777-|-5-3-0-0-000-0-|-53-0-0-000-0000---------|

Du
Du hast
Du hast mich
Du
Du hast
Du hast mich

Du
Du hast
Du hast mich
Du hast mich
Du hast mich gefragt
Du hast mich gefragt
Du hast mich gefragt und ich hab nichts gesagt

1|---------------|------------------|--------------------------|
2|---------------|------------------|--------------------------|
3|---------------|------------------|--------------------------|
4|-7-5-2-2-222-2-|-75-2-2-222--2222-|-5-7--7-7-777-7777--------|
5|-7-5-2-2-222-2-|-75-2-2-222--2222-|-5-7--7-7-777-7777--------|
6|-5-3-0-0-000-0-|-53-0-0-000--0000-|-3-5--5-5-555-5555--------|

1|-------------------|-----------------------------------------|
2|-------------------|-----------------------------------------|
3|-------------------|-----------------------------------------|
4|-5-7--7-7-777-7777-|-5-10--10-10-101010-10101010-------------|
5|-5-7--7-7-777-7777-|-5-10--10-10-101010-10101010-------------|
6|-3-5--5-5-555-5555-|-3-8----8--8--8-8-8--8-8-8-8-------------|

1|-------------------|-----------------------------------------|
2|-------------------|-----------------------------------------|
3|-------------------|-----------------------------------------|
4|-5-9--9-9-999-9999-|-7-5-2-2-222-2-|-75-2-2-222-2222---------|
5|-5-9--9-9-999-9999-|-7-5-2-2-222-2-|-75-2-2-222-2222---------|
6|-3-7--7-7-777-7777-|-5-3-0-0-000-0-|-53-0-0-000-0000---------|

Willst du bis der Tod euch scheidet
treu ihr sein fur alle Tage...
nein! nein!
Willst du bis zum Tod der Scheide
sie lieben auch in schlechten Tagen....
nein! nein!
Willst du bis der Tod euch scheidet treu ihr sein...
nein! nein!

1|---------------|------------------|--------------------------|
2|---------------|------------------|--------------------------|
3|---------------|------------------|--------------------------|
4|-7-5-2-2-222-2-|-75-2-2-222--2222-|-5-7--7-7-777-7777--------|
5|-7-5-2-2-222-2-|-75-2-2-222--2222-|-5-7--7-7-777-7777--------|
6|-5-3-0-0-000-0-|-53-0-0-000--0000-|-3-5--5-5-555-5555--------|

1|-------------------|-----------------------------------------|
2|-------------------|-----------------------------------------|
3|-------------------|-----------------------------------------|
4|-5-7--7-7-777-7777-|-5-10--10-10-101010-10101010-------------|
5|-5-7--7-7-777-7777-|-5-10--10-10-101010-10101010-------------|
6|-3-5--5-5-555-5555-|-3-8----8--8--8-8-8--8-8-8-8-------------|

1|-------------------|-----------------------------------------|
2|-------------------|-----------------------------------------|
3|-------------------|-----------------------------------------|
4|-5-9--9-9-999-9999-|-7-5-2-2-222-2-|-75-2-2-222-2222---------|
5|-5-9--9-9-999-9999-|-7-5-2-2-222-2-|-75-2-2-222-2222---------|
6|-3-7--7-7-777-7777-|-5-3-0-0-000-0-|-53-0-0-000-0000---------|


Расскажи друзьям!




Войдите, используя Ваш аккаунт:



Забыли пароль?
Зарегистрироваться

Привет, гитарист!

Пройди супер-курс по гитаре и порази всех своей игрой!

Забрать курс!
ВАМ ПОДАРКИ ОТ ПРОЕКТА
"ГИТАРНАЯ РЕВОЛЮЦИЯ"