Gitaristu.ru
Аккорды Табулатура Начинающим Мастер-класс Софт Видео Форум Блог
Новости Анонсы Гитары Гитаристы Статьи Аватарки Минусовки
Поиск





Популярные подборы




Настройка гитары






Главная > Аккорды > R > Rammstein

Аккорды
Rammstein
-
Du Riechst So Gut

Не нашли аккорды к песне? Посмотрите на


Подбор прислал: piligrim80
Ну,во-первых!Все песни RAMMSTEIN исполняются не на стандартном 6-ти струнном строе, а с 
опущенной на тон 6-й струной. Для того, чтобы настроить свою гитару так, нужно зажать 6-ю 
струну на 7-м (а не на 5-м) ладу , и добиться одинакового звучания с открытой 5-й 
струной. Такой строй ими используется потому, что он упрощает игру ритма. Теперь-песня. 
Начинается она с темы на клавишах; на гитаре это можно сыграть так:

2-я---3-4---3-4---3-4---4---3-4---3--
3-я-0-----0-----0-----0---0-----0----  x4

После-вступает ритм:
  _ _   _ _   _ _   _  _ _   _  _ _  _ _  _ _  _  _ _
E--------------------------------------------------------17^
B-----------------------------------------------------------
G-----------------------------------------------------------
D-0-1---0-1---0-1---1--0-1---0--0-1--0-1--0-1--1--0-1-------
A-0-1---0-1---0-1---1--0-1---0--0-1--0-1--0-1--1--0-1-------
D-0-1---0-1---0-1---1--0-1---0--0-1--0-1--0-1--1--0-1-------

17^-это Bend(подтянуть струну пальцем наверх).
Все вступление играется на Muting’е(только для электрогитар)
Muting-это способ игры (как правило, ритма) , при котором ребро ладони правой руки глушит струны , прислоняясь к ним у нижнего порожка. Я отмечаю это так : 
_ _ 
0-0
Когда начинается куплет, остается только бас (Ist nur eine schmalle brucke)

G-----------------------------------------------------------
D-0-1---0-1---0-1---1--0-1---0--0-1--0-1--0-1--1--0-1--0----
A-----------------------------------------------------------
E-----------------------------------------------------------

Проигрыш перед припевом:

4-я-12-12-12-12-10-10-10-10-8-8-8-8-7-7-7-7-
5-я-12-12-12-12-10-10-10-10-8-8-8-8-7-7-7-7-
6-я-12-12-12-12-10-10-10-10-8-8-8-8-7-7-7-7-

Припев(Du riechst so gut)
                     _  _ _  _ _  _ _  _  _ _
4-я-5-5-5-5-8-8-8-8--0--0-1--0-1--0-1--1--0-1-----
5-я-5-5-5-5-8-8-8-8--0--0-1--0-1--0-1--1--0-1-----
6-я-5-5-5-5-8-8-8-8--0--0-1--0-1--0-1--1--0-1----- x3

4-й раз:

4-я--10-10-10-10-8-8-8-8-7-7-7-7-7-7-7-7-
5-я--10-10-10-10-8-8-8-8-7-7-7-7-7-7-7-7-
6-я--10-10-10-10-8-8-8-8-7-7-7-7-7-7-7-7-


Бас:

G-----------------------------------------------
D-5-5-5-5-8-8-8-8--0--0-1--0-1--0-1--1--0-1-----
A-----------------------------------------------
E-----------------------------------------------


Во 2-й части припева играется немного по-другому:

4-я-5-5-5-5-7-7-7-7-0-0-0-0-0-0-0-0-
5-я-5-5-5-5-7-7-7-7-0-0-0-0-0-0-0-0-
6-я-5-5-5-5-7-7-7-7-0-0-0-0-0-0-0-0-

Бас:

G---------------------------------
D-5-5-5-5-7-7-7-7-0-0-0-0-0-0-0-0-
A---------------------------------
E---------------------------------

Соло:

3-я-12-0-12-0-12-0-12-0-11-0-11-0-11-0-12-0--
затем:
4-я-12-0-12-0-12-0-12-0-13-0-12-0-13-0-12-0--

При переходе на открытую струну можно использовать Пул (Для тех, кто знает, что это такое)
(На Distortion´е играется без правой руки, с использованием Хаммера (Для тех, кто знает, что это такое)).

Вот, собственно, и все.

TEXT:

Der Wahnsinn
Ist nur eine schmale Brücke
Die Ufer sind Vernunft und Trieb
Ich steig Dir nach
Das Sonnenlicht den Geist verwirrt
Ein blindes Kind das vorwärts kriecht
Weil es seine Mutter riecht

Die Spur ist frisch und auf die Brücke
Tropft dein Schweiss Dein warmes Blut
Ich seh Dich nicht
Ich riech Dich nur Ich spüre Dich
Ein Raubtier das vor Hunger schreit
Witter Ich Dich meilenweit

Припев:
Du riechst so gut
Du riechst so gut
Ich geh Dir hinterher
Du riechst so gut
Ich finde Dich
So gut
Ich steig Dir nach
Du riechst so gut
Gleich hab Ich Dich

Ich warte bis es dunkel ist
Dann fass Ich an die nasse Haut
Verrate Mich nicht
Oh siehst Du nicht die Brücke brennt
Hör auf zu schreien und wehr Dich nicht
Weil Sie sonst auseinander bricht

Припев:
Du riechst so gut
Du riechst so gut
Ich geh Dir hinterher
Du riechst so gut
Ich finde Dich
So gut
Ich steig Dir nach
Du riechst so gut
Gleich hab Ich Dich
Du riechst so gut
Du riechst so gut
Ich geh Dir hinterher
Du riechst so gut
Ich finde Dich
So gut
Ich fass Dich an
Du riechst so gut
Jetzt hab Ich Dich
Du riechst so gut
Du riechst so gut
Ich geh Dir hinterher
Расскажи друзьям!




Войдите, используя Ваш аккаунт:



Забыли пароль?
Зарегистрироваться

Привет, гитарист!

Пройди супер-курс по гитаре и порази всех своей игрой!

Забрать курс!
ВАМ ПОДАРКИ ОТ ПРОЕКТА
"ГИТАРНАЯ РЕВОЛЮЦИЯ"