Gitaristu.ru
Аккорды Табулатура Начинающим Мастер-класс Софт Видео Форум Блог
Новости Анонсы Гитары Гитаристы Статьи Аватарки Минусовки
Поиск





Популярные подборы




Настройка гитары






Главная > Аккорды > R > Rammstein

Аккорды
Rammstein
-
Feuer Frei bass (табулатура)

Не нашли аккорды к песне? Посмотрите на


Подбор прислал: gitaristu.ru
Band: Rammstein
Album: Mutter
Feuer Frei! bass tab
Tuning: DADG
Tabbed by Daouhl


Intro chord:

G |----------------|
D |----------------|
A |----------------|
D |--5-(LET RING)--|

Bridge at 00:39 and 1:20

G |----------------------|
D |----------------------|
A |----------------------|
D |--0-0-0-0-0-0-0-------|

Verse 2 & 3 and main riff (no bass during 2 verse)

G |-------------------------------------------------------|
D |*------------------------------------------------------|
A |*------------------------------------------------------|
D |--5-6-5--5-6-5--5-6-5--5-6-5--5-6/8-8-8-8-10-----------|

Chorus:                                                      Fill in during chorus

G |-----------------------------------------------------|          G  |----------------|
D |*---------------------------------------------------*|          D |-----------------|
A |*---------------------------------------------------*|          A |--5-----4-----1--|
D |--5-6-5--5-6-5--5-6-5--5-6-5--5-6/8-8-8-8-10--|          D |------------------------|

Outro:

G |-------------------------------------------------------------|
D |*------------------------------------------------------------|
A |*--5-----4-----1-----5-----4-----1-----5-----4-----1---------|
D |--------------------------------------------------------5----|

Feel free to contact me if YOU have any comments at daaahl@hotmail.com This tab is 100% 
Don't try to copy
Расскажи друзьям!




Войдите, используя Ваш аккаунт:



Забыли пароль?
Зарегистрироваться

Привет, гитарист!

Пройди супер-курс по гитаре и порази всех своей игрой!

Забрать курс!
ВАМ ПОДАРКИ ОТ ПРОЕКТА
"ГИТАРНАЯ РЕВОЛЮЦИЯ"