Gitaristu.ru
Аккорды Табулатура Начинающим Мастер-класс Софт Видео Форум Блог
Новости Анонсы Гитары Гитаристы Статьи Аватарки Минусовки
Поиск





Популярные подборы




Настройка гитары






Главная > Аккорды > R > Rammstein

Аккорды
Rammstein
-
Fever Und Wasser (табулатура)

Не нашли аккорды к песне? Посмотрите на


Подбор прислал: gitaristu.ru
----------------------------------------------------------------------------
                             Fever und wasser-Rammstein
-----------------------------------------------------------------------------
Tabbed by: Carlos Yanko
Email: yankork@hotmail.com

Intro:


e|----------------------------------------------------------------------------|
B|----------------------------------------------------------------------------|
G|----------------------------------------------------------------------------|
D|----------------------------------------------------------------------------|
A|--3---3---3---3---3---3---3---3---3---3---3---3---3---3---3-----------------|
E|----3---3---3---3---3---3---3---3---3---3---3---3---3---3-------------------|

x3

e|---------------------------|
B|---------------------------|
G|---------------------------|
D|--1-----3----5----5--------|
A|----3-----5----6----6------|
E|---------------------------|

e|-------------------------------------------------------------------------|
B|-------------------------------------------------------------------------|
G|--5----3----1----1-------------------------------------------------------|
D|----6----5----3----3-----------------------------------------------------|
A|-------------------------------------------------------------------------|
E|-------------------------------------------------------------------------|

Despues cambia. (si quieren toda la tablatura de esta canci
Расскажи друзьям!




Войдите, используя Ваш аккаунт:



Забыли пароль?
Зарегистрироваться

Привет, гитарист!

Пройди супер-курс по гитаре и порази всех своей игрой!

Забрать курс!
ВАМ ПОДАРКИ ОТ ПРОЕКТА
"ГИТАРНАЯ РЕВОЛЮЦИЯ"