Gitaristu.ru
Аккорды Табулатура Начинающим Мастер-класс Софт Видео Форум Блог
Новости Анонсы Гитары Гитаристы Статьи Аватарки Минусовки
Поиск





Популярные подборы




Настройка гитары






Главная > Аккорды > R > Rammstein

Аккорды
Rammstein
-
Herzeleid bass (табулатура)

Не нашли аккорды к песне? Посмотрите на


Подбор прислал: gitaristu.ru
Album: Rammstein Herzeleid
Tuning: DADG, D#G#C#F#, EADG
------------------------------------------------------------------------------------

1: Wollt Ihr Das Bett in Flammen Sehen  

Intro/Main riff  
G|-----------------------------||-------------------------------------|  
D|-----------------------------||*-----------------------------------*|  
A|--5-------6-------5----------||*-3---5-------6-------5-------------*|  
D|------0-------0-------0---0--||----------0-------0-------0---0------|  

Verse 
G|-------------------------------------|  
D|------------------------------------*|  
A|*-3---5-------6-------5-------------*|  
E|----------0-------0-------0---0------|  

Alternative verse 
Расскажи друзьям!




Войдите, используя Ваш аккаунт:



Забыли пароль?
Зарегистрироваться

Привет, гитарист!

Пройди супер-курс по гитаре и порази всех своей игрой!

Забрать курс!
ВАМ ПОДАРКИ ОТ ПРОЕКТА
"ГИТАРНАЯ РЕВОЛЮЦИЯ"