Gitaristu.ru
Аккорды Табулатура Начинающим Мастер-класс Софт Видео Форум Блог
Новости Анонсы Гитары Гитаристы Статьи Аватарки Минусовки
Поиск





Популярные подборы




Настройка гитары






Главная > Аккорды > R > Rammstein

Аккорды
Rammstein
-
Ich Will (1)

Не нашли аккорды к песне? Посмотрите на


Подбор прислал: gitaristu.ru
Тема:

4|-0-----3-2-------0-----3-2-------|
5|-------------4---------------4-0-|

В первом куплете что-то тмипа того:

4|-0-------0------|
5|-0-------0------|


Тема припева:

5|-5-55-55-----------5-55-55-----------|
6|-----------6-63-35-----------6-68-85-|


Проигрышь:

3|-----2-------2-------2-------2-------3-------3-------3-------- 
4|---0---0---0---0---0---0---0---0---3---3---3---3---3---3------ 
5|-0-------0-------0-------0-------1-------1-------1-------1--0-   
6|--------------------------------------------------------------   
							           /2 раза
3|-----0-------0-------0-------0-------2-------2-------2---|      /
4|---0---0---0---0---0---0---0---0---2---2---2---2---2---2-|     /
5|---------------------------------0-------0-------0-------|    /
6|-3-------3-------3-------3-------------------------------|   /


А текстов этой песни на сайте много
Расскажи друзьям!




Войдите, используя Ваш аккаунт:



Забыли пароль?
Зарегистрироваться

Привет, гитарист!

Пройди супер-курс по гитаре и порази всех своей игрой!

Забрать курс!
ВАМ ПОДАРКИ ОТ ПРОЕКТА
"ГИТАРНАЯ РЕВОЛЮЦИЯ"