Gitaristu.ru
Аккорды Табулатура Начинающим Мастер-класс Софт Видео Форум Блог
Новости Анонсы Гитары Гитаристы Статьи Аватарки Минусовки
Поиск





Популярные подборы




Настройка гитары






Главная > Аккорды > R > Rammstein

Аккорды
Rammstein
-
Ich Will (3)

Не нашли аккорды к песне? Посмотрите на


Подбор прислал: gitaristu.ru
Клавишные
1|----10-------10------13-------12-------10-|
2|-10----10-10------10----10-10----10-10----|
3|------------------------------------------|
4|------------------------------------------|
5|------------------------------------------|
6|------------------------------------------|

Riff a
1|----------------------------|----------------------------|----------------------------
2|----------------------------|----------------------------|----------------------------
3|-7-7---7-7--7-7-7---7-7---7-|-7-7---7-7--7-7-7---7-7---7-|-7-7---7-7--7-7-7---7-7---7-
4|-7-7---7-7--7-7-7---7-7---7-|-7-7---7-7--7-7-7---7-7---7-|-7-7---7-7--7-7-7---7-7---7-
5|-5-5-0-5-5--5-5-5-0-5-5-0-5-|-5-5-0-5-5--5-5-5-0-5-5-0-5-|-5-5-0-5-5--5-5-5-0-5-5-0-5-
6|--------------------------------------------------------------------------------------

-1|-------------------------------|
-2|-------------------------------|
-3|-7-7---7-7--10-10-10---9-9---7-|
-4|-7-7---7-7--10-10-10---9-9---7-|
-5|-5-5-0-5-5--8--8--8--0-7-7-0-5-|
-6|-------------------------------|

Riff b
1|-------------------------------|
2|-------------------------------|
3|-7-7---7-7--10-10-10---9-9---7-|
4|-7-7---7-7--10-10-10---9-9---7-|
5|-5-5-0-5-5--8--8--8--0-7-7-0-5-|
6|-------------------------------|

Riff c
1|---------------------------------------------------------------------------------------------|-
2|---------------------------------------------------------------------------------------------|-
3|-----7-------7-------7-------7-------3-------3-------3---------------------------------------|-
4|---7---7---7---7---7---7---7---7---3---3---3---3---3---3-3-2-----5-------5-------5-------5---|-
5|-5-------5-------5-------5-------1-------1-------1-------1-0---5---5---5---5---5---5---5---5-|-
6|-------------------------------------------------------------3-------3-------3-------3-------|-

-1|---------------------------------|
-2|---------------------------------|
-3|-----2-------2-------2-------2---|
-4|---2---2---2---2---2---2---2---2-|
-5|-0-------0-------0-------0-------|
-6|---------------------------------|


Riff a
Ich will
Ich will
Ich will
Ich will...


Ich will 

Ich will dass ihr mir vertraut 
Ich will dass ihr mir glaubt 
Ich will eure Blicke spuren 
Ich will jeden Herzschlag kontrollieren 

Ich will eure Stimmen horen 
Ich will die Ruhe storen 
Ich will dass ihr mich gut seht 
Ich will dass ihr mich versteht 

Ich will eure Fantasie 
Ich will eure Energie 
Ich will eure Hande sehen 
Ich will in Beifall untergehen 

Seht ihr mich 
Versteht ihr mich 
Fuhlt ihr mich 
Hort ihr mich 

Riff b
Konnt ihr mich horen 
Konnt ihr mich sehen 
Konnt ihr mich fuhlen 
Ich versteh euch nicht 


Ich will
Ich will
Ich will... 

Riff c
Wir wollen dass ihr uns vertraut 
Wir wollen dass ihr uns alles glaubt 
Wir wollen eure Hande sehen 
Wir wollen in Beifall untergehen - ja 

Думаю с РИФАМИ разберетесь, не так уж и трудно, если слух есть.
Расскажи друзьям!




Войдите, используя Ваш аккаунт:



Забыли пароль?
Зарегистрироваться

Привет, гитарист!

Пройди супер-курс по гитаре и порази всех своей игрой!

Забрать курс!
ВАМ ПОДАРКИ ОТ ПРОЕКТА
"ГИТАРНАЯ РЕВОЛЮЦИЯ"