Gitaristu.ru
Аккорды Табулатура Начинающим Мастер-класс Софт Видео Форум Блог
Новости Анонсы Гитары Гитаристы Статьи Аватарки Минусовки
Поиск





Популярные подборы




Настройка гитары






Главная > Аккорды > R > Rammstein

Аккорды
Rammstein
-
Ich Will (3 вариант)

Не нашли аккорды к песне? Посмотрите на


Подбор прислал: gitaristu.ru
Главный Riff
G|-------------------------------------------------------|
D|-6-6-6-6-6--6-6-6-6-6-6-6-6-6-6-6-6-6--6-6-6-6-6-6-6-6-|
A|-6-6-6-6-6--6-6-6-6-6-6-6-6-6-6-6-6-6--6-6-6-6-6-6-6-6-|
E|-4-4-4-4-4--4-4-4-4-4-4-4-4-4-4-4-4-4--4-4-4-4-4-4-4-4-|
 
G|-------------------------------------------------------|
D|-6-6-6-6-6--6-6-6-6-6-6-6-6-6-6-6-6-6--9-9-9-7-7-7-5-5-|
A|-6-6-6-6-6--6-6-6-6-6-6-6-6-6-6-6-6-6--9-9-9-7-7-7-5-5-|
E|-4-4-4-4-4--4-4-4-4-4-4-4-4-4-4-4-4-4--7-7-7-5-5-5-3-3-|

Another Riff
G|-----------|
D|-6-6-6-6-6-|
A|-6-6-6-6-6-|
E|-4-4-4-4-4-|

Chorus (play four times)
G|--------------------------|
D|-6----10-9-7--6----10-9-7-|
A|-6----10-9-7--6----10-9-7-|
E|-4----8- 7-5--4----8--7-5-|

without Distortion: play two times
Intro1
G|-------------------------------------------|
D|-----6-------6-------6-------6-------10----|
A|---6---6---6---6---6---6---6---6---10---10-|
E|-4-------4-------4-------4-------8---------|

Продолжение Intro1
G|--------------------------------------------|(Intro2)
D|-----10---------10--------------------7-----|
A|--10----10---10----10---10--9--7----7---7---|
E|-8---------8-------------8--7--5------------|

G|-------------------------|
D|-----7-------7-------7---|
A|---7---7---7---7---7---7-|
E|-5-------5-------5-------|

Продолжение Intro2
G|---------------------------------|
D|-----9-------9-------9-------9---|
A|---9---9---9---9---9---9---9---9-|
E|-7-------7-------7-------7-------|


Расскажи друзьям!




Войдите, используя Ваш аккаунт:



Забыли пароль?
Зарегистрироваться

Привет, гитарист!

Пройди супер-курс по гитаре и порази всех своей игрой!

Забрать курс!
ВАМ ПОДАРКИ ОТ ПРОЕКТА
"ГИТАРНАЯ РЕВОЛЮЦИЯ"