Gitaristu.ru
Аккорды Табулатура Начинающим Мастер-класс Софт Видео Форум Блог
Новости Анонсы Гитары Гитаристы Статьи Аватарки Минусовки
Поиск





Популярные подборы




Настройка гитары






Главная > Аккорды > R > Rammstein

Аккорды
Rammstein
-
Klavier (табулатура)

Не нашли аккорды к песне? Посмотрите на


Подбор прислал: gitaristu.ru



Date: Wed, 30 Oct 2002 19:56:26 +0100
From: Kristof Smits 

Date: Fri, 29 Mar 2002 23:37:23 -0800 (PST)
From: esteban yanez metallicarocks8@yahoo.com
Subject: r/rammstein/klavier.tab
 
Song: Klavier
Artist: Rammstein
Album: Sehnsucht
 
 
Intro:
Synthesizer amp; Drum
 
Verse 1:
e--------------------------------------------------------------
B--------------------------------------------------------------
G-------12------12------10------------10------12------9--------
D----10----(10)----(10)----(10)----10----(10)----(10)---(10)---
A--0-----------------------------0-----------------------------
E--------------------------------------------------------------
 
e----------------------------------------------
B----------------------------------------------
G-------12---------10-10------9-9------10------
D----10----10---10---------10-------10----10---
A--8----------8----------8--------8------------
E----------------------------------------------
 
Chorus (tremolo picking):
|Guitar 1
|      3 times
|e----------------------|------------------|
|B----------------------|------------------|
|G----------------------|------------------|
|D--8----/----12-------|---13-------10---|
|A--8----/----12-------|---13-------10---|
|E--6----/----10-------|---11--------8---|
|
|Guitar 2
|      3 times
|e----------------------|------------------|
|B----------------------|------------------|
|G--15---/----19-------|---20-------17---|
|D---x---/-----x-------|----x--------x---|
|A--13---/----17-------|---18-------15---|
|E----------------------|------------------|
 
Fill:
e--------------------------------------------------------------
B--------------------------------------------------------------
G-------12------12------10------------10------12------9--------
D----10----(10)----(10)----(10)----10----(10)----(10)---(10)---
A--0-----------------------------0-----------------------------
E--------------------------------------------------------------
 
Verse 2:
e--------------------------------------------------------------
B--------------------------------------------------------------
G-------12------12------10------------10------12------9--------
D----10----(10)----(10)----(10)----10----(10)----(10)---(10)---
A--0-----------------------------0-----------------------------
E--------------------------------------------------------------
 
e----------------------------------------------
B----------------------------------------------
G-------12---------10-10------9-9------10------
D----10----10---10---------10-------10----10---
A--8----------8----------8--------8------------
E----------------------------------------------
 
e--------------------------------------------------------------
B--------------------------------------------------------------
G-------12------12------10------------10------12------9--------
D----10----(10)----(10)----(10)----10----(10)----(10)---(10)---
A--0-----------------------------0-----------------------------
E--------------------------------------------------------------
 
e-----------------------------------------------
B-----------------------------------------------
G-------12---------10---------9---------10------
D----10----10---10----10---10---10---10----10---
A--8----------8----------8---------8------------
E-----------------------------------------------
 
Bridge (tremolo picking):
                                                               (x3)
|Guitar 1
|e-----------------------------------------------------------------|
|B-----------------------------------------------------------------|
|G-----------------------------------------------------------------|
|D--5/9--------7----5/9--------7----7/9/10-------7--------2---|
|A--5/9--------7----5/9--------7----7/9/10-------7--------2---|
|E--3/7--------5----3/7--------5----5/7/-8-------5--------0---|
|
|Guitar 2
|e------------------------------------------------------------------|
|B------------------------------------------------------------------|
|G--12/16------14---12/16------14---14/16/17------14-------9---|
|D---x/-x-------x----x/-x-------x----x/-x/-x-------x-------x---|
|A--10/14------12---10/14------12---12/14/15------12-------7---|
|E------------------------------------------------------------------|
 
|Guitar 1
|e-----------------------------------------------------------------|
|B-----------------------------------------------------------------|
|G-----------------------------------------------------------------|
|D--5/9--------7----5/9--------7----7/9/10-------7----/----9---|
|A--5/9--------7----5/9--------7----7/9/10-------7----/----9---|
|E--3/7--------5----3/7--------5----5/7/-8-------5----/----7---|
|
|Guitar 2
|e------------------------------------------------------------------|
|B------------------------------------------------------------------|
|G--12/16------14---12/16------14---14/16/17------14---/---16---|
|D---x/-x-------x----x/-x-------x----x/-x/-x-------x---/----x---|
|A--10/14------12---10/14------12---12/14/15------12---/---14---|
|E------------------------------------------------------------------|
 
Song structure:
Intro
Verse 1 x5      (00:08)
Chorus          (00:57)
Fill x2         (01:13)
Verse 2 x2      (01:21)
Chorus x2       (01:54)
Bridge          (02:26)
Chorus x2       (03:31)
Verse           (04:04) except last few notes
 
 


Расскажи друзьям!




Войдите, используя Ваш аккаунт:



Забыли пароль?
Зарегистрироваться

Привет, гитарист!

Пройди супер-курс по гитаре и порази всех своей игрой!

Забрать курс!
ВАМ ПОДАРКИ ОТ ПРОЕКТА
"ГИТАРНАЯ РЕВОЛЮЦИЯ"