Gitaristu.ru
Аккорды Табулатура Начинающим Мастер-класс Софт Видео
Новости Анонсы Гитары Гитаристы Статьи Аватарки Минусовки
Поиск



Популярные подборы




Настройка гитары






Главная > Аккорды > R > Rammstein

Аккорды
Rammstein
-
Wilder Wein (табулатура)

Не нашли аккорды к песне? Посмотрите на


Подбор прислал: gitaristu.ru
I like this song this tab is correct but the verse riffs are translated
for guitar and are in a lower octave than the music.

Intro
E|----------------------------------------------------------------------||
B|----------------------------------------------------------------------||
G|----------------------------------------------------------------------||
D|-----2---2---2---3---2---2---2---3---2---2---2---3-2-0----------------||
A|---0---0---0---0---0---0---0---0---0---0---0---0-------3-2-3-2-0-2-0--||
E|----------------------------------------------------------------------||

Verse Riff 1                          Verse Riff 2
E|-----------------------------------|-----------------------------------||
B|-----------------------------------|-----------------------------------||
G|-----------------------------------|-----------------------------------||
D|-----------0-----------------------|-----------------------------------||
A|---0-2-3-0-----3-2-0-2-3-0-3---2---|---0---0-2-3-2-0-2-3-2-0-2-3---2---||
E|-----------------------------------|-----0-----------------------------||

The chords played through the guitar strumming are:  Em D C D
Those chords just repeat.
Below are the english and german lyrics for Wilder Wein

German Lyrics
Wilder Wein - vor deinem Schloss 
Wilder Wein - ich bin bereit 
man meldet Ankunft - nur f

Другие подборы этого исполнителя

Расскажи друзьям!




Привет, гитарист!

Пройди супер-курс по гитаре и порази всех своей игрой!

Забрать курс!
ВАМ ПОДАРКИ ОТ ПРОЕКТА
"ГИТАРНАЯ РЕВОЛЮЦИЯ"