Gitaristu.ru
Аккорды Табулатура Начинающим Мастер-класс Софт Видео
Новости Анонсы Гитары Гитаристы Статьи Аватарки Минусовки
Поиск



Популярные подборы




Настройка гитары






Главная > Аккорды > R > Rammstein

Аккорды
Rammstein
-
Wolt Ihr Das Bett In Flammen Sehen

Не нашли аккорды к песне? Посмотрите на


Подбор прислал: gitaristu.ru
riff:
1|-------------------------------|-------------
2|-------------------------------|-------------
3|-------------------------------|-1010101010--
4|--7--8--7--5~~7--8--7--5~~7----|-1010101010--
5|--7--8--7--5~~7--8--7--5~~7----|-8-8-8-8-8---
6|--5--6--5--3~~5--6--5--3~~5----|-------------

BASS
1|------------------
2|------------------
3|------------------
4|-5-6-5-3~5-6-5-3~5

Wollt Ihr das Bett in Flammen sehen 
Wollt Ihr in Haut und Haaren untergehen 
Ihr wollt doch auch den Dolch ins Laken stecken 
Ihr wollt doch auch das Blut vom Degen lecken 

Rammstein 

Ihr seht die Kreuze auf dem Kissen 
Ihr meint euch darf die Unschuld kussen 
Ihr glaubt zu toten ware schwer 
Doch wo kommen all die Toten her 

Rammstein 
       

    (4 раза)
1|-----------------
2|-----------------
3|-----------------
4|-5--55-5-5--5-55-
5|-5--55-5-5--5-55-
6|-3--33-3-3--3-33-

Sex ist ein Schlacht 
Liebe ist Krieg 



Wollt Ihr das Bett in Flammen sehen 
Wollt Ihr in Haut und Haaren untergehen 
Ihr wollt doch auch den Dolch ins Laken stecken 
Ihr wollt doch auch das Blut vom Degen lecken 

Rammstein 

Другие подборы этого исполнителя

Расскажи друзьям!




Привет, гитарист!

Пройди супер-курс по гитаре и порази всех своей игрой!

Забрать курс!
ВАМ ПОДАРКИ ОТ ПРОЕКТА
"ГИТАРНАЯ РЕВОЛЮЦИЯ"