Gitaristu.ru
Аккорды Табулатура Начинающим Мастер-класс Софт Видео Форум Блог
Новости Анонсы Гитары Гитаристы Статьи Аватарки Минусовки
Поиск





Популярные подборы




Настройка гитары






Главная > Аккорды > Б > Брамс Иоганнес

Аккорды
Брамс Иоганнес
-
Вальс в Ab (Колыбельная) (ор. 39 №15)

Не нашли аккорды к песне? Посмотрите на


Подбор прислал: gitaristu.ru
E||-------------------|-------------------|--------------|
B||--0-------------0--|--0-------------0--|--1----0------|
G||---------0--0-----|----------0--0-----|------------2-|
D||------0-----------|-------0-----------|--2----0------|
A||-------2-----------|-------2-----------|------------3-|
E||--3----------------|--3----------------|--3-----------|
 
E|------------------|--0----------------|--0---------------|
B|--0-------------3-|----------0--0--3--|----------0--0--3-|
G|----------0--0----|--0----------------|--0---------------|
D|-------0----------|-------------------|------------------|
A|-------2----------|-------2-----------|-------2----------|
E|--3---------------|--0----------------|--0---------------|

E|--2--0-----------|-------------------|------------------|
B|--------3----2---|---3---------------|--3-------------3-|
G|--0-----4----3---|---4-------------@-|----------4--4----|
D|--------4----4---|---4-------------@-|-------4----------|
A|-----------------|---2---------------|--2---------------|
E|-----------------|-------------------|------------------|

E|-------------------|-------------------|--3-------------3-|
B|--3-------------3--|--3-------0--0--3--|----------3--3----|
G|----------2--2-----|--0----------------|-------0----------|
D|-------0-----------|-------4-----------|-------3----------|
A|--0----------------|-------------------|--2---------------|
E|-------------------|--3----------------|------------------|

E|--3----------0--3--|--5-------0--0--3--|--3--2--0------|
B|----------3--------|-------2-----------|--1-----1----3-|
G|-------0-----------|-------0-----------|--0-----0----5-|
D|-------2-----------|-------------------|-------------4-|
A|--3----------------|--0----------------|---------------|
E|-------------------|-------------------|---------------|

E|------------------|-------------------|--------------|
B|--0-------------0-|--0-------------0--|--1----0------|
G|---------0--0----|----------0--0-----|------------2-|
D|------0----------|-------0-----------|--2----0------|
A|-------2----------|-------2-----------|------------3-|
E|--3---------------|--3----------------|--3-----------|

E|-------------------|--0---------------|--0---------------|
B|--0-------------3--|----------0--0--3-|----------0--0--3-|
G|----------0--0-----|--0---------------|--0---------------|
D|-------0-----------|------------------|------------------|
A|-------2-----------|-------2----------|-------2----------|
E|--3----------------|--0---------------|--0---------------|

E|--2--0------------|--------||--3--------------|----|
B|--------3----2----|---3----||--0--3--1--------|----|
G|--0-----4----3----|---4---||--0-----2--------|--0-|
D|--------4----4----|---4---||-------------4---|--0-|
A|------------------|---2----||-------------5---|--2-|
E|------------------|--------||-----------------|--3-|
Расскажи друзьям!




Войдите, используя Ваш аккаунт:



Забыли пароль?
Зарегистрироваться

Привет, гитарист!

Пройди супер-курс по гитаре и порази всех своей игрой!

Забрать курс!
ВАМ ПОДАРКИ ОТ ПРОЕКТА
"ГИТАРНАЯ РЕВОЛЮЦИЯ"