Gitaristu.ru
Аккорды Табулатура Начинающим Мастер-класс Софт Видео Форум Блог
Новости Анонсы Гитары Гитаристы Статьи Аватарки Минусовки
Поиск





Популярные подборы




Настройка гитары






Главная > Аккорды > Б > Бутусов Вячеслав

Аккорды
Бутусов Вячеслав
-
Гибралтар - Лабрадор (3 вариант)

Не нашли аккорды к песне? Посмотрите на


Подбор прислал: gitaristu.ru
Gadd11                    
G|-------------7---|-------------7---|
D|-----8----9------|-----8----9------|
A|-10--------------|-10------------7-|
E|---12--10--12--10|---10--12--10----|
 
Gadd11+
G|-------------7---|-------------7---|
D|-----8----9------|-----8----9------|
A|-10------------7-|-10------------7-|
E|---10--12--10----|---10--12--10----|

G6
G|-------------7---|-------------7---|
D|-----8----9------|-----8----9------|
A|-10--------------|-10------------7-|
E|---12--10--12--10|---10--12--10----|

G|-------------7---|-------------7---|
D|-----8----9------|-----8----9------|
A|-10------------7-|-10------------7-|
E|---10--12--10----|---10--12--10----|

G
G|--------------|
D|-9-8----------|
A|----10-8------| 2 раза.
E|--------9-12--|

G#7Maj
Песню звонкую пропела
B7
И на изгородь взлетела
G#7Maj
Птица в белых кружевах
(G
И в шиншилловых мехах

G
Гибралтар, Лабрадор
Fm9+
За окном крадется вор
G
Лабрадор

Если спелая малина
G
Почернела без причины
И осыпалась кора
                     G
Значит - кончилась игра

Гибралтар, Лабрадор
Из трубы свисает вор
Лабрадор

[solo:]
       G
B|---3-4----3-4-3----------------------------|          |---3-4|
G|--5------5-----5-3------0-1-----0-1-0------| - 2 раза |--5---|
D|-5------5---------6--3-3-----3-3------3-1-0|          |-5----|

В желтом облаке Сансары
Вертолет страдает старый
Не поет, закрыв свой рот
Виртуозный полиглот

Лабрадор, Гибралтар
Начинается пожар
Гибралтар

Многоликие монголы
Пьют карбидовые смолы
Турки скачут по гробам
Прямо в город Амстердам

Лабрадор, Гибралтар
Закрывается ангар
Гибралтар

[solo]
--
B7 - 113134
G#7Maj - 336543
B7sus - 113141
Расскажи друзьям!




Войдите, используя Ваш аккаунт:



Забыли пароль?
Зарегистрироваться

Привет, гитарист!

Пройди супер-курс по гитаре и порази всех своей игрой!

Забрать курс!
ВАМ ПОДАРКИ ОТ ПРОЕКТА
"ГИТАРНАЯ РЕВОЛЮЦИЯ"