Gitaristu.ru
Аккорды Табулатура Начинающим Мастер-класс Софт Видео Форум Блог
Новости Анонсы Гитары Гитаристы Статьи Аватарки Минусовки
Поиск





Популярные подборы




Настройка гитары






Главная > Аккорды > Б > Бутусов Вячеслав

Аккорды
Бутусов Вячеслав
-
Вертолёт

Не нашли аккорды к песне? Посмотрите на


Подбор прислал: gitaristu.ru
F#m
e|5424242-4242020-2424542-4+----------|
H|------------------------2+9-6-3-0---|
G|------------------------4+-------1--|
D|------------------------3+--------34|
 
e|-------------------------------------------------------------|
H|-------02320-----02320-----02320-----02320------020----------|
G|----22-------211-------122-------211-------1002-----20----2--|
D|-------------------------------------------------------44----|
A|9\-----------------------------------------------------------|
E|-------------------------------------------------------------|

E|-------------------------------------------------------------|
H|--030----------0---------------------------------------------|
G|------2-----02---20------------------------------------------|
D|--------433---------3-22200----------------------------------|
A|----------------------------4422-----------------------------|
E|-------------------------------------------------------------|

e|-----------54-----------54-----------------32--------------10|
H|-----023-------------023-----------------02------------------|
G|-------------------------------------2------------------02---|
D|-------------------------------------------------------3-----|

E
Я лечу над землей,
E
Верчу головой,                         [A]
D
Я теперь вертолет.
A
Выше тучи полет.

e|--7-10--7-10--7---7-10-7-10-7---7-10--7-10--7--
H|10----10----10---9----9----9--10----10----10---

e|---7-10-7-10-7---5-9--5-9-5--|
H|--9----9----9---8----8---8---|

e|-5-10-5-10-5---3-7-3-7-3-----------|
C]
G|--------------------------999776644|

Вижу сверху свой дом,
Всем привет, всем подъем.              [C]
В доме кто-то не спит,
В доме кто-то поет:

F#m
'Пой ласточка, пой.
Пой, милая,
F#m
Пой, не умолкай,
Красивая.                              [D]
F#m
Пой, ласточка, пой.
Пой, милая,
Ab
Пой, не умолкай'

D]
E|-------2------------2-------------2----0----4|

H|10-9-7-9-7-5-3--9-7-5-7-5-3-2--7-5-3-9-10-9-3--6-3-0-6-3-0-2|

Я лечу над землей.
Возвращаюсь домой.
Ты мне машешь крылом,                  [A]
'Я - центральный, прием'.

Вижу сверху наш дом,
Вижу свет за окном,
Мы сидим за столом,                    [A]
Чай пьем и поем:

'Спи, звездочка, спи.
Спи, ясная. Спи, не угасай,
Прекрасная. Спи, звездочка спи.        [D]
Спи, ясная, спи, не угасай'

[A]
[C]

H|10-9-7-9-7-5-3--9-7-5-7-5-3-2--7-5-3-9-10-3--9-6-3-9-6-3-7|
Расскажи друзьям!




Войдите, используя Ваш аккаунт:



Забыли пароль?
Зарегистрироваться

Привет, гитарист!

Пройди супер-курс по гитаре и порази всех своей игрой!

Забрать курс!
ВАМ ПОДАРКИ ОТ ПРОЕКТА
"ГИТАРНАЯ РЕВОЛЮЦИЯ"