Gitaristu.ru
Аккорды Табулатура Начинающим Мастер-класс Софт Видео Форум Блог
Новости Анонсы Гитары Гитаристы Статьи Аватарки Минусовки
Поиск





Популярные подборы




Настройка гитары






Главная > Аккорды > Б > Бутусов Вячеслав

Аккорды
Бутусов Вячеслав
-
Звездочка

Не нашли аккорды к песне? Посмотрите на


Подбор прислал: gitaristu.ru
		Звездочка

		1:|-88-8-8-8--88-8-8-8--88-8-8-8|------------|--88-8-8-8--88-8-8-8-|
		2:|8--7-6-5--8--7-6-5--8--7-6-5-|------------|-8--7-6-5--8--7-6-5--|
		3:|-----------------------------|--7654-7654-|---------------------|

		1:|------------|---88-8-8-8--88-8-8-8|----54-----75----15/1715-|
		2:|------------|--8--7-6-5--8--7-6-5-|----------------------------|
		3:|--7654-7654-|---------------------|-----------------765--------|
		4:|------------|---------------------|-987-----987----------------|

		1:|--88-8-8-53|-----------|
		2:|-8--7-6-----|653-531-310|

		1:|878-----878-----|
		2:|---8-------8----|
		3:|----9-------9---|
		4:|-----10------10-|

		C                    G
		С неба звездочка скатилась
		G7                 C
		И сказала, чуть дыша:
		Я влюбилась в Самуила,
		В Самуила Маршака.

		               E
		Я давно его искала,
		                     Am
		Все моталась, все летала,
		                  G
		Лет прошло уже немало,
		G7             C
		Наконец-то нашла 

		                    Dm
		Он один мне всех дороже,
		                      C
		Он не мальчик, ну и что же,
		                  G
		Я ведь тоже не девица,
		                             C
		Слава Богу, мне семнадцатый век.

		1:|10-10----------53|12-12---------1715|
		2:|-----12-----------|-----13------------|
		3:|-------12---------|-------12----------|
		4:|---------14-12----|---------14-10-----|

		1:|10-10----------53|12-12---------1715|
		2:|-----12-----------|-----13------------|
		3:|-------12---------|-------12----------|
		4:|---------14-12----|---------14-10-----|

		1:|12-12---------54-|8-8---------75----|
		2:|-----12-----------|---10--------------|
		3:|-------13---------|-----9-------------|
		4:|---------14-9-----|------10-7---------|

		1:|10-10----------1715|12-12---------53|
		2:|-----12-------------|-----13----------|
		3:|-------12-----------|-------12--------|
		4:|---------14-12------|---------14-10---|

		Самуил, услышав это,
		Очень долго хохотал,
		Ты смешнее всех на свете -
		Развеселая вдова.

		Уморила Самуила,
		Укатала старика, -
		Я давно уже на небе,
		Прилетай-ка сюда,

		2:|653-531-310-|

		Ты искала слишком долго,
		И нашла в стогу иголку,
		Никакого в этом толку нет, звезда.
		Возвращайся назад.

		4:|55443322-4433221-66554433-5544332|

		1:|12-12----------75|14-14----------1917|
		2:|-----14-----------|-----15-------------|
		3:|-------14---------|-------14-----------|
		4:|---------14-11----|---------16-12------|

		1:|12-12----------75|14-14----------1917|
		2:|-----14-----------|-----15-------------|
		3:|-------14---------|-------14-----------|
		4:|---------14-11----|---------16-12------|

		D                  A
		С неба звездочка упала,
		A7                D
		Зацепилась за крючок,
		Отвиселась и сказала:
		Здравствуй милый дурачок.

		1:|14-14----------76|10-10-----------97|
		2:|-----14-----------|-----12------------|
		3:|-------15---------|-------11----------|
		4:|---------16-9-----|---------12-9------|

		1:|12-12----------1917|14-14-----------75|
		2:|-----14-------------|-----15------------|
		3:|-------14-----------|-------14----------|
		4:|---------14-11------|---------16-12-----|

		                 F#
		Вот тебя-то я искала,
		                  Hm
		Мой любимый, дорогой,
		                       A
		Образ твой всегда печален и
		A7                 D
		Я примчалась за тобой,

		2:|875-753-532|

		                Em
		Я следила за тобою с высока,
		Ты мне нравишься,
		    D
		Но только вот беда,
		                A
		Не умеешь ты летать, наверняка, -
		                 D
		Сокрушалась звезда
		     A

		1:|10-9-10---------10-9-10--------989-------989---------|
		2:|-------10--------------10---------10--------10-------|
		3:|---------11--11----------11--9------9--9------9------|
		4:|-----------12--------------12--------11--------11-12|

		1:|12-12----------75|14-14----------1917|
		2:|-----14-----------|-----15-------------|
		3:|-------14---------|-------14-----------|
		4:|---------14-11----|---------16-12------|

		1:|12-12----------75|14-14----------1917|
		2:|-----14-----------|-----15-------------|
		3:|-------14---------|-------14-----------|
		4:|---------14-11----|---------16-12------|

		А я сяду на ракету,
		И отправлюсь за звездой,
		У меня жена и дети,
		Я возьму их с собой.

		1:|-----------|10-9-10--------|
		2:|875-753-532|-------10------|
		3:|-----------|---------11--11|
		4:|-----------|-----------12--|

		А звезда мне отвечала:
		Стой-ка, стой 
		Ты какой-то торопливый,
		Милый мой.
		Начинаем все сначала ла-ла-ла,
		Повторяй-ка за мной:

		1:|--12--12  |--10--10  |-9-9  |
		2:|12--12--..|10--10--..|8-8-..|

		С неба звездочка упала-ла-ла-ла,
		И решительно сказала-ла-ла-ла,
		До свиданья, друг мой милый, дорогой,
		Я прощаюсь с тобой

		4:|77665544-6655443-77665544-6655443-7|

		Мне пора бы домой...
Расскажи друзьям!




Войдите, используя Ваш аккаунт:



Забыли пароль?
Зарегистрироваться

Привет, гитарист!

Пройди супер-курс по гитаре и порази всех своей игрой!

Забрать курс!
ВАМ ПОДАРКИ ОТ ПРОЕКТА
"ГИТАРНАЯ РЕВОЛЮЦИЯ"