Gitaristu.ru
Аккорды Табулатура Начинающим Мастер-класс Софт Видео Форум Блог
Новости Анонсы Гитары Гитаристы Статьи Аватарки Минусовки
Поиск





Популярные подборы




Настройка гитары






Главная > Аккорды > Д > ДДТ

Аккорды
ДДТ
-
Дождь

Не нашли аккорды к песне? Посмотрите на


Подбор прислал: gitaristu.ru
1982 - Свинья на радуге, 1992 - Актриса весна, 1993 - Черный пес Петербург, 1999 - Просвистела
  Дождь

  Am    Am/C             Dm              E          Am
  Дождь,     звонкой пеленой наполнил небо майский дождь.
  Am    Am/C                Dm           E             Am
  Гром,      прогремел по крышам, распугал всех кошек гром.
             Em             Dm         Em            F
  Я открыл окно, и весёлый ветер разметал все на столе -
            Em                Dm       Em           Am
  Глупые стихи, что писал я в душной и унылой пустоте.

  Грянул майский гром и веселье бурною, пьянящею волной
  Окатило, эй, вставайка и попрыгай вслед за мной.
  Выходи во двор и по лужам бегай хоть до самого утра.
  Посмотри, как носится смешная и святая детвора.

  Капли на лице-это просто дождь, а может плачу это я.
  Дождь очистил все и душа захлюпав, и вдруг размокла у меня.
  Потекла речьем прочь из дома к солнечным некошенным лугам.
  Превратившись в пар, с ветром полетела к неизведанным мирам.

  И представил я: город наводнился вдруг веселыми людьми.
  Вышли все под дождь, хором что-то пели и плясали, черт возьми.
  Позабыв про стыд и опастность после с осложненьем заболеть, 
  Люди под дождем, как салют встречали гром - весенний первый гром.

-

   Am   Am/C          Dm           E            Am    Am/C Dm7 E
  Дождь, звонкой пеленой наполнил небо майский дождь.
    Am   Am/C               Dm          E               Am
  Гром,      прогремел по крышам, распугал всех кошек гром.
              Em            Dm         Em            F
  Я открыл окно, и веселый ветер разметал все на столе -
             Em                Dm        Em         Am
  Глупые стихи, что писал я в душной и унылой пустоте.

  Грянул майский гром и веселье бурною, пьянящею волной
  Окатило. Эй, вставай-ка и  попрыгай всед за мной.
  Выходи во двор и по лужам бегай хоть до самого утра.
  Посмотри как носится смешная и святая детвора.

  Капли на лице - это просто дождь, а может плачу это я.
  Дождь очистил все, и душа, захлюпав, и вдруг размокла у меня.
  Потекла ручьем прочь из дома к солнечным некошенным лугам.
  Превратившись в пар, с ветром полетела к неизведанным, неведомым мирам.

  И представил я: город наводнился вдруг веселыми людьми.
  Вышли все по дождь, скоро что-то пели, и плясали, черт возьми.
  Позабыв про стыд и опасность после с осложненьем заболеть,
  Люди под дождем, как салют, встречали гром - весенний первый гром.

-

   Am    Am            Dm           E7
(1)  Дождь,    звонкой пеленой наполнил небо,
         Am         Am    Dm    E7
  Майский дождь.
   Am    Am            Dm
  Гром, прогремел по крышам,
        E7             Am
  Распугал всех кошек гром.
             Em            Dm
  Я открыл окно и веселый ветер
        Em             F
  Разметал все на столе:
        Em                   Dm
  Глупые стихи, что писал я в душной
     Em         Am
  И унылой пустоте.

   Am             Am
(2)  Грянул майский гром
   Am/c      Dm/h     E7       Am     Am/c
  И веселье бурною, пьянящею волной oкатило
            Dm/h        E7            Am
  Эй, вставай-ка, и попрыгай вслед за мной.
             Em                Dm
  Выходи во двор и по лужам бегай
          Em       F
  Хоть до самого утра.
                  Em
  Посмотри как носится
       Dm      Em         Am   Am/c    Dm/h
  Смешная и Святая и  детвора.

   E7        Am     Am/c       Dm/h
(3)  Капли на лице - Это просто дождь,
             E7     Am
  А может плачу это я.
                 Am/c             Dm/h
  Дождь очистил все, и душа, захлюпав
             E7       Am
  Вдруг, размокла у меня.
             Em
  Потекла ручьем, прочь из дома
   Dm           Em          F
  к солнечным, некошенным лугам,
                   Em
  Превратившись в пар,
                Dm         Em       Am  Am/c  Dm/h
  С ветром полетела к неизведанным мирам.

   E7         Am    Am/c       Dm/h
(4)  И представил я- город наводнился
          E7        Am
  Вдруг веселыми людьми.
                  Am/c              Dm/h
  Вышли все под дождь, хором что-то пели
        E7            Am
  И плясали, чёрт возьми 
              Em
  Позабыв про стыд,
              Dm           Em        F
  И опасность после с осложненьем заболеть,
              Em                    Dm
  Люди под дождём, как салют, встречали гром,
     Em            Am
  Весенний первый гром.

-

  Esus/A  Esus/C  Asus/H  E

   Esus/A  Esus/C     Asus/H      E        Esus/A  Esus/C  Asus/H  E
  Дождь,              звонкой пеленой наполнил небо майский дождь.
  Esus/A  Esus/C              Asus/H              E              Esus/A
  Гром,                 прогремел по крышам, распугал всех кошек гром.
            Em       Asus/D       Em             Asus/F
  Я открыл окно, и веселый ветер разметал все на столе -
  Em     Asus/D      Em     Esus/A  Esus/C  Asus/H  E
  Глупые стихи, что писал я в душной и унылой пустоте.

  Грянул майский гром, и веселый голос, то ли пьяный, то ль шальной
  Прокричал мне: Эй, вставай-ка и попрыгай вслед за мной.
  Выходи во двор, и по лужам бегай хоть до самого утра.
  Посмотри как носится смешная и святая детвора.

  Капли на лице - это просто дождь, а может плачу это я.
  Дождь очистил все, и душа, захлюпав, вдруг размокла у меня.
  Потекла ручьем прочь из дома к солнечным некошеным лугам.
  Превратившись в парус, с ветром полетела к неизведанным мирам.

  И представил я: город наводнился вдруг веселыми людьми.
  Вышли все под дождь, хором песни пели, и плясали, черт возьми.
  Позабыв свой стыд и опасность после с осложненьем заболеть,
  Люди под дождем, как салют, встречали гром - веселый майский гром.
  Дождь, дождь...

   Esus/A - [002200]
   Esus/C - [032200]
   Asus/H - [020230]
   Asus/D - [000230]
   Asus/F - [003230]

-

   Am  Am*            Em*           E      Em**     Am
  Дождь, звонкой пеленой наполнил воздух майский дождь.
  Гром, прогремел по крышам, распугал всех кошек гром.
  Я открыл окно, и веселый ветер разметал все на столе -
  Глупые стихи, что писал я в душной и унылой пустоте.

  Грянул майский гром, и веселый голос, то ли пьяный, то ль шальной
  Прокричал мне: Эй, вставай-ка и попрыгай вслед за мной.
  Выходи во двор, и по лужам бегай хоть до самого утра.
  Посмотри как носится смешная и святая детвора.

  Капли на лице - это просто дождь, а может плачу это я.
  Дождь очистил все, и душа, захлюпав, вдруг размокла у меня.
  Потекла ручьем прочь из дома к солнечным некошеным лугам.
  Превратившись в парус, с ветром полетела к неизведанным мирам.

  И представил я: город наводнился вдруг веселыми людьми.
  Вышли все под дождь, хором песни пели, и плясали, черт возьми.
  Позабыв свой стыд и опасность после с осложненьем заболеть,
  Люди под дождем, как салют, встречали гром - веселый майский гром.
  Дождь, дождь...

   Am*
   струны [123456]
   лады   [012230]

  Em*
   струны [123456]
   лады   [002320]

  Em**
   струны [123456]
   лады   [002020]

-

   Тублатура снята с  концертной аккустической версии.

Вступление:  |               Am         |               Am            |
  1|-------------0---------0-------------------0---------0--|
  2|------1---------1------------------1----------1---------|
  3|----2---2---------2------------2------2---------2-------|
  4|--------------------------------------------------------|
  5|-0---------------------------0--------------------------|
  6|--------------------------------------------------------|

   |             Dm            |           E7               |
  1|---------------1---------1-------------------0--------0-|
  2|---------3---------3-------------------3---------3------|
  3|------2-----2---------2------------1------1---------1---|
  4|--0-----------------------------------------------------|
  5|--------------------------------------------------------|
  6|--------------------------------0-----------------------|

   |           Am     |       Am/C     |        Dm/B        |
  1|----------0-----0------------0----------------1-----1---|
  2|------1-----1-----------1---------------0-------0-------|
  3|---2----2-----2-------2---2-----2-----2----2------2-----|
  4|--------------------------------------------------------|
  5|-0------------------3----------------2------------------|
  6|--------------------------------------------------------|

   |             E             |
  1|----------------0--------0-|
  2|--------0---------0--------|
  3|-----1-----1--------1------|
  4|---------------------------|
  5|---------------------------|
  6|-0-------------------------|

Куплет 1:   Дождь,                                        звонкой
   |            Am             |             Am            |
  1|-------------0---------0-------------------0---------0-|
  2|------1---------1------------------1----------1--------|
  3|----2---2---------2------------2------2---------2------|
  4|-------------------------------------------------------|
  5|-0---------------------------0-------------------------|
  6|-------------------------------------------------------|

    пеленой             наполнил  небо,          майский
   |               Dm             |          E7         |
  1|------------------1---------1------------0--------0-|
  2|----------3----------3--------------3----------3----|
  3|------2------2-----------2--------1---1------1------|
  4|--0-------------------------------------------------|
  5|----------------------------------------------------|
  6|--------------------------------0-------------------|

    дождь.
   |           Am     |       Am/C     |        Dm/B        |
  1|----------0-----0------------0----------------1-----1---|
  2|------1-----1-----------1---------------0-------0-------|
  3|---2----2-----2-------2---2-----2-----2----2------2-----|
  4|--------------------------------------------------------|
  5|-0------------------3----------------2------------------|
  6|--------------------------------------------------------|

   |             E             |
  1|----------------0--------0-|
  2|--------0---------0--------|
  3|-----1-----1--------1------|
  4|---------------------------|
  5|---------------------------|
  6|-0-------------------------|

    Гром,                                      прогремел по
   |             Am           |             Am             |
  1|-------------0---------0-------------------0---------0-|
  2|------1---------1------------------1----------1--------|
  3|----2---2---------2------------2------2---------2------|
  4|-------------------------------------------------------|
  5|-0---------------------------0-------------------------|
  6|-------------------------------------------------------|

   крышам,                   распугал     всех     кошек
   |               Dm             |          E7         |
  1|------------------1---------1------------0--------0-|
  2|----------3----------3--------------3----------3----|
  3|------2------2-----------2--------1---1------1------|
  4|--0-------------------------------------------------|
  5|----------------------------------------------------|
  6|--------------------------------0-------------------|

    гром.           Я открыл окно          и         веселый
   |               Am         |             Em              |
  1|-------------0---------0---------------------0--------0-|
  2|------1---------1---------------------0---------0-------|
  3|----2---2---------2-------------0--------0---------0----|
  4|--------------------------------------------------------|
  5|-0------------------------------------------------------|
  6|-----------------------------0--------------------------|

    ветер                  разметал            всё       на
   |             Dm           |            Em              |
  1|--------------1---------1----------------0-----------0-|
  2|--------3--------3-----------------0---------0---------|
  3|----2------2--------2-----------0-----0---------0------|
  4|-0-----------------------------------------------------|
  5|-------------------------------------------------------|
  6|-----------------------------0-------------------------|

    столе:        глупые       стихи,    что   писал   я   в
   |              F              |            Em            |
  1|----------------1----------1------------------0-------0-|
  2|---------1---------1-------------------0---------0------|
  3|------2----2----------2------------0-----0----------0---|
  4|--------------------------------------------------------|
  5|--3-----------------------------------------------------|
  6|--------------------------------0-----------------------|

   душной и                  унылой
   |            Dm            |            Em            |
  1|----------------1--------1---------------0---------0-|
  2|--------3--------3----------------0--------0---------|
  3|-----2-----2-------2----------0-----0--------0-------|
  4|-0---------------------------------------------------|
  5|-----------------------------------------------------|
  6|---------------------------0-------------------------|

  пустоте.
   |           Am     |       Am/C     |        Dm/B        |
  1|----------0-----0------------0----------------1-----1---|
  2|------1-----1-----------1---------------0-------0-------|
  3|---2----2-----2-------2---2-----2-----2----2------2-----|
  4|--------------------------------------------------------|
  5|-0------------------3----------------2------------------|
  6|--------------------------------------------------------|

   |              E             |
  1|----------------0--------0--|
  2|--------0---------0---------|
  3|-----1-----1--------1-------|
  4|----------------------------|
  5|----------------------------|
  6|-0--------------------------|

   |           Am     |       Am/C     |        Dm/B        |
  1|----------0-----0------------0----------------1-----1---|
  2|------1-----1-----------1---------------0-------0-------|
  3|---2----2-----2-------2---2-----2-----2----2------2-----|
  4|--------------------------------------------------------|
  5|-0------------------3----------------2------------------|
  6|--------------------------------------------------------|

   |  E  |
  1|--0--|
  2|--0--|
  3|--1--|
  4|--2--|
  5|--2--|
  6|--0--|

   Отсюда боем, только припев1

                  Am       Am/C
Припев1: Грянул майский гром
            Dm          E7       Am    Am/C
  И веселье бурною, пьянящею волной oкатило
           Dm            E7             Am
  Эй, вставай-ка, и попрыгай вслед за мной.
             Em              Dm
  Выходи во двор и по лужам бегай
          Em        F
  Хоть до самого утра.
                Em
  Посмотри как носится
       Dm       Em
  Смешная и Святая

  детвора.

   |           Am     |       Am/C     |        Dm/B        |
  1|----------0-----0------------0----------------1-----1---|
  2|------1-----1-----------1---------------0-------0-------|
  3|---2----2-----2-------2---2-----2-----2----2------2-----|
  4|--------------------------------------------------------|
  5|-0------------------3----------------2------------------|
  6|--------------------------------------------------------|

   |             E             |
  1|----------------0--------0-|
  2|--------0---------0--------|
  3|-----1-----1--------1------|
  4|---------------------------|
  5|---------------------------|
  6|-0-------------------------|

Куплет 2: Капли на лице -                               это просто
   |            Am            |             Am             |
  1|-------------0---------0-------------------0---------0-|
  2|------1---------1------------------1----------1--------|
  3|----2---2---------2------------2------2---------2------|
  4|-------------------------------------------------------|
  5|-0---------------------------0-------------------------|
  6|-------------------------------------------------------|

    дождь,         а может       плачу               это
   |               Dm             |          E7         |
  1|------------------1---------1------------0--------0-|
  2|----------3----------3--------------3----------3----|
  3|------2------2-----------2--------1---1------1------|
  4|--0-------------------------------------------------|
  5|----------------------------------------------------|
  6|--------------------------------0-------------------|

      я.            Дождь очистил все, и душа,          за-
   |            Am            |             Am             |
  1|-------------0---------0-------------------0---------0-|
  2|------1---------1------------------1----------1--------|
  3|----2---2---------2------------2------2---------2------|
  4|-------------------------------------------------------|
  5|-0---------------------------0-------------------------|
  6|-------------------------------------------------------|

  хлюпав          вдруг,        размокла     у        ме-
   |               Dm             |          E7         |
  1|------------------1---------1------------0--------0-|
  2|----------3----------3--------------3----------3----|
  3|------2------2-----------2--------1---1------1------|
  4|--0-------------------------------------------------|
  5|----------------------------------------------------|
  6|--------------------------------0-------------------|

      ня.          Потекла ручьем, прочь  из  дома   к
   |               Am         |             Em              |
  1|-------------0---------0---------------------0--------0-|
  2|------1---------1---------------------0---------0-------|
  3|----2---2---------2-------------0--------0---------0----|
  4|--------------------------------------------------------|
  5|-0------------------------------------------------------|
  6|-----------------------------0--------------------------|

   солнечным,          некошенным               лу-
   |             Dm           |           Em             |
  1|----------------1--------1---------------0---------0-|
  2|--------3--------3----------------0--------0---------|
  3|-----2-----2-------2----------0-----0--------0-------|
  4|-0---------------------------------------------------|
  5|-----------------------------------------------------|
  6|---------------------------0-------------------------|

    гам, превратившись в пар, с ветром поле-
   |              F              |            Em            |
  1|----------------1----------1------------------0-------0-|
  2|---------1---------1-------------------0---------0------|
  3|------2----2----------2------------0-----0----------0---|
  4|--------------------------------------------------------|
  5|--3-----------------------------------------------------|
  6|--------------------------------0-----------------------|

     тела        к         неизведанным              ми-
   |             Dm           |          Em             |
  1|----------------1-------1---------------0---------0-|
  2|--------3--------3----------------0--------0--------|
  3|-----2-----2-------2----------0-----0--------0------|
  4|-0--------------------------------------------------|
  5|----------------------------------------------------|
  6|---------------------------0------------------------|

     рам.
   |           Am     |       Am/C     |        Dm/B        |
  1|----------0-----0------------0----------------1-----1---|
  2|------1-----1-----------1---------------0-------0-------|
  3|---2----2-----2-------2---2-----2-----2----2------2-----|
  4|--------------------------------------------------------|
  5|-0------------------3----------------2------------------|
  6|--------------------------------------------------------|

   |  E  |
  1|--0--|
  2|--0--|
  3|--1--|
  4|--2--|
  5|--2--|
  6|--0--|

   Отсюда боем, только припев2

              Am      Am/C
Припев2: И представил я -
              Dm
  город наводнился
           E7        Am
  Вдруг веселыми людьми.
                Am/C                Dm
  Вышли все под дождь, хором что-то пели
        E7            Am
  И плясали, чёрт возьми (как могли)
                Em
  Позабыв про стыд,
              Dm            Em         F
  И опасность после с осложненьем заболеть,
               Em                  Dm
  Люди под дождём, как салют, встречали гром,
     Em             Am
  Весенний первый гром.

Аккорды:  | Am/C  |          |  Dm/B |            |  E7   |
  1|-------|         1|---1---|           1|-------|
  2|---1---|         2|-------|           2|---3---|
  3|---2---|         3|---2---|           3|---1---|
  4|---2---|         4|-------|           4|---2---|
  5|---3---|         5|---2---|           5|---2---|
  6|-------|         6|-------|           6|-------|

-

   ОСОБОЕ ВНИМАНИЕ, ТОВАРИЩИ   
   Сначала нужно обратить свое внимание на аккорды, приведенные ниже   
   Версии опубликованные здесь просто полная туфта по сравнению с этим   
   И не забывайте, товарищи -ЭТО АКУСТИКА   

   аккорды [654321] - струны

  Am7     [002200]
  Am7/C   [032200]
  Em7     [020200]
  E7      [020100]
  Dm7     [000230]

  Am7   Am7/C         Em7          E7           Am7
  Дождь, звонкой пеленой наполнил небо майский дождь.

Проигрыш: Am7 Am7/C Em7 E7 Am7

  Am7  Am7/C           Em7         E7             Am7
  Гром, прогремел по крышам, распугал всех кошек гром.

  Am7        Em             Dm7        Em            Dm7
  Я открыл окно, и веселый ветер разметал все на столе -

            Em                 Dm7       Em         Am7
  Глупые стихи, что писал я в душной и унылой пустоте.

   Здесь идет проигрыш одного аккорда Am7, по длине равный
   проигрышу Am7 Am7/C Em7 E7 - затем идет этот проигрыш 
   Кто слушал акустику-со мной полностью согласится   

  Грянул майский гром, и веселье бурною, пьянящею волной
  Откатило: Эй, вставай-ка и попрыгай вслед за мной.
  Выходи во двор, и по лужам бегай хоть до самого утра.
  Посмотри как носится смешная и святая детвора.

  Капли на лице - это просто дождь, а может плачу это я.
  Дождь очистил все, и душа, захлюпав, вдруг размокла у меня.
  Потекла ручьем прочь из дома к солнечным некошеным лугам.
  Превратившись в пар, с ветром полетела к неизведанным мирам.

  И представил я: город наводнился вдруг веселыми людьми.
  Вышли все под дождь, хором что-то пели,и плясали,черт возьми.
  Позабыв про стыд и опасность после с осложненьем заболеть,
  Люди под дождем, как салют, встречали гром - весенний первый гром.

-

   (песня играется в До# мажоре)

  Am# Am#             F#           F        Am#Am#F#F
  Дождь, звонкой пеленой наполнил небо майский дождь.
  Am# Am#             F#           F             Am#
  Гром, прогремел по крышам, распугал всех кошек гром.
            Fm               F#      Fm           F#
  Я открыл окно, и веселый ветер разметал все на столе –
            Fm               F#          Fm       Am#
  Глупые стихи, что писал я в душной и унылой пустоте.

  Грянул майский гром и веселье бурною, пьянящею волной
  Окатило: Эй, вставай-ка и попрыгай вслед за мной.
  Выходи во двор и по лужам бегай хоть до самого утра.
  Посмотри как носится смешная и святая детвора.

  Капли на лице - это просто дождь, а может плачу это я.
  Дождь очистил все и душа захлюпав, вдруг размокла у меня.
  Потекла ручьем прочь из дома к солнечным некошеным лугам.
  Превратившись в парус, с ветром полетела к неизведанным, мирам.

  И представил я: город наводнился вдруг веселыми людьми.
  Вышли все под дождь, хором что-то пели, и плясали, черт возьми.
  Позабыв про стыд и опасность после с осложненьем заболеть,
  Люди под дождем, как салют, встречали гром - весенний первый гром.

-

  Am...F.............Dm...........E
  Дождь. Звонкой пеленой наполнил небо,
  ........Am.........(F Dm E)
  Майский дождь.
  Am...F.............Dm
  Гром, прогремел по крышам,
  ......E...............Am
  Распугал всех кошек гром.
  ...........Em............Dm
  Я открыл окно и веселый ветер
  ......Em............F
  Разметал все на столе:
  ..........Em.................Dm
  Глупые стихи, что писал я в душной
   ...Em.........F (в других куплетах Am)
  И унылой пустоте.

  Грянул майский гром и веселье бурною,
  Пьянящею волной
  Накатило: Эй, вставай-ка, и попрыгай вслед за мной.
  Выходи во двор и по лужам бегай
  Хоть до самого утра.
  Посмотри как носится святая
  И смешная детвора.

  Капли на лице... Это просто дождь,
  А может плачу это я.
  Дождь очистил все, и душа, захлюпав
  Вдруг, размокла у меня.
  Потекла ручьем, прочь из дома к солнечным, некошенным лугам,
  Превратившись в пар,
  С ветром полетела к неизведанным мирам.
  И представил я: город наводнился
  Вдруг веселыми людьми.
  Вышли все под дождь, хором что-то пели
  И плясали, чёрт возьми 
  Позабыв про стыд, и опасность после
  С осложненьем заболеть,
  Люди под дождём как салют, встречали гром,
  Весенний первый гром...

-

Вступление: 3|-----4-9--4-5---- } N-раз

   Am   Am/C        Dm           E             Am Am/C Dm7 E
  Дождь,  звонкой пеленой наполнил небо майский дождь.
   Am   Am/C        Dm           E               Am
  Гром, прогремел по крышам,распугал всех кошек гром.
              Em          Dm          Em           F
  Я открыл окно,и веселый ветер разметал все на столе:
              Em          Dm          Em           Am
  Глупые стихи,что писал я в душной и унылой пустоте.

  Грянул майский гром,и веселье бурною,пьянящею волной
  Окатило. Эй Вставай-ка и попрыгай вслед за мной.
  Выходи во двор и по лужам бегай хоть до самого утра.
  Посмотри как носится смешная и святая детвора.

   Соло1 } 2 раза
  1|--------------------------------------
  2|-12--10--12--10--12---12-10-12-10-12--
  3|--------------------------------------

  1|--------------------------------------
  2|--------------------------------------
  3|-16--14--16--14--16---16-14-16-14-16--

  1|--13-12-10----------------------------
  2|------------13-12---------------------
  3|--------------------------------------

  Слезы на лице-это просто дождь, а может плачу это я.
  Дождь очистил все и душа,захлюпав,вдруг размокла у меня.
  Потекла ручьем прочь из дома к солнечным,некошенным лугам,
  Превратившись в пар,с ветром полетела к неизведанным мирам.

  Соло1 } 4 раза

  И представил я: город наводнился вдруг веселыми людьми.
  Вышли все под дождь,хором что-то пели и плясали,черт возьми,
  Позабыв про стыд и опасность после с осложненьем заболеть.
  Люди под дождем как сальют встречали гром-весенний первый гром.

  1|--------------------------------------------------------
  2|-15---------12-----------12-10--------------------------
  3|--------------------------------------------------------

  1|-------------------13-12---------13-12-10-13------------
  2|--10-12-10-12--15------------------------------15-12----
  3|--------------------------------------------------------

  1|--------------------------------------------------------
  2|--15--13------15-----------10-12-10-12-10-15------------
  3|------------------16-------------------------16---------

  1|-13-12-10-13---14-13-11-14--------------------10-12-13-12
  2|-------------------------------------10-12-13-----------
  3|----------------------------10-12-13--------------------

  1|-------------------------13-12-10-----------------------
  2|---------------12-10--10----------13-12-10h12---12-10---
  3|--14-16-17----------------------------------------------

  1|--------------------------------------------------------
  2|---17--12------15--10----------15--17-----17/15-12------
  3|--------------------------------------------------------

  1|------------12-10--------------------------------------
  2|--13-12-10--------12~~~~~~~~~~~~~~~~~~~~~~~------------
  3|-------------------------------------------------------

   Советую играть с записью с альбома Актриса весна,
   а то сразу трудно вьехать

-

  Am       Am/C
(1)  Дождь...
              Dm/H         E7           Am     Am/C Dm/H E7
  Звонкой пеленой наполнил небо майский дождь.
   Am     Am/C
  Гpом...
                Dm/H        E7              Am
  Пpогpемел по кpышам, pаспyгал всех кошек гpом.
             Em            Dm         Em            F
  Я откpыл окно, и весёлый ветеp pазметал всё на столе -
            Em                Dm        Em         Am  Am/C Dm/H E7
  Глyпые стихи, что писал я в дyшной и yнылой пyстоте.

                  Am   Am/C
(2)  Гpянyл майский гpом,
            Dm/H      E7       Am
  И веселье бypною пьянящею волной
     Am/C           Dm/H        E7              Am
  Окатило - Эй, вставай-ка и попpыгай вслед за мной.
             Em             Dm            Em       F
  Выходи во двоp и по лyжам бегай хоть до самого yтpа -
                Em          Dm       Em       Am
  Посмотpи, как носится смешная и святая детвоpа.

(3)  Капли на лице -
  Это пpосто дождь, а может плачy это я.
  Дождь очистил всё, и дyша, захлюпав, вдpyг pазмокла y меня.
  Потекла pyчьём, пpочь из дома, к солнечным некошенным лyгам
  Пpевpатившись в паp, с ветpом полетела к неизведанным миpам.

(4)  И пpедставил я:
  Гоpод наводнился вдpyг весёлыми людьми.
  Вышли все под дождь, хоpом что-то пели и плясали, чёpт возьми 
  Позабыв пpо стыд и опасность после с осложненьем заболеть,
  Люди под дождём, как салют, встpечали гpом, весенний пеpвый гpом.

-

  Am       Dm                                E                    Am    (Am Dm E)
  Дожь, звонкой пленой наполнил небо майский дождь.
  Am                          Dm                E                        Am
  Гром...прогремел по крышам распугал всех кошек гром.
               Em                      Dm             E                F
  Я открыл окно, и веселый ветер разметал все на столе-
                Em                        Dm            E              F   (Dm E)
  Глупые с тихи, что писал я в душной и унылой пустоте
                           Am C                Dm           E                Am
  Грянул майский гром, и веселье бурною пьянящею волной
       C                 Dm                 E                        Am
  Окатило. Эй, вставай ка и попрыгай вслед за мной,
                      Em                   Dm                E            F
  Выходи во двор и по лужам бегай хоть до самого утра.
                        Em                 Dm         E            Am (Am C Dm E)
  Посмотри, как носится смешная и святая датвора.

   (Далее то же самое кроме набольших поправок)
  Капли на лице - это просто дождь, а может плачу это я
                          Em                     Dm                       E             F
  Дождь очистил все, и душа, захлюпав, вдруг размокла у меня.
  Потекла ручьем прочь из дома к солнечным, не кошеным лугам,
  Превратившись в пар, с ветром полетела к неизведанным мирам(Am C Dm E)

  И представил я: город наводнился вдруг веселыми людьми,
  Вышли все под дождь, хором что-то пели и плясали, чорт возьми,
  Позабыв про стыд и опасность после с осложненьем заболеть.
  Люди под дождем как салют встречали гром, весенний первый гром.


Расскажи друзьям!




Войдите, используя Ваш аккаунт:



Забыли пароль?
Зарегистрироваться

Привет, гитарист!

Пройди супер-курс по гитаре и порази всех своей игрой!

Забрать курс!
ВАМ ПОДАРКИ ОТ ПРОЕКТА
"ГИТАРНАЯ РЕВОЛЮЦИЯ"