Gitaristu.ru
Аккорды Табулатура Начинающим Мастер-класс Софт Видео Форум Блог
Новости Анонсы Гитары Гитаристы Статьи Аватарки Минусовки
Поиск





Популярные подборы




Настройка гитары






Главная > Аккорды > Г > Гоман Алексей

Аккорды
Гоман Алексей
-
Облака

Не нашли аккорды к песне? Посмотрите на


Подбор прислал: gitaristu.ru
Оригинальная тональность Gm, или чтобы играть вместе со вступлением в оригинальной тональности, потребуется каподастр на 3-м ладу.
Вступление: 
Riff1:
E|---------0--1------------------------0-----------|----------0---------------------------0--|
B|----0-1--------------0------0-1-3------1------|-----0-1----3--------------1----3------|
G|-2---------------2---------0-----------------2--|---2---------------2----1---------------|
D|-------------0---------------------------------3--|------------------------------------------|
A|-0------------------------------------3-----------|-------------2-----------2---0----------|
E|-----------------------3---------------------------|------------------------------------------|
 
Riff2:
E|---------0--1------------------------0-----------|----------0-------------------------------|
B|----0-1--------------0------0-1-3------1------|-----0-1----3--------------1----0------|
G|-2---------------2---------0-----------------2--|---2---------------2----1------------2--|
D|-------------0---------------------------------3--|-------------------------------------------|
A|-0------------------------------------3-----------|-------------2-----------2---0-----------|
E|-----------------------3---------------------------|-------------------------------------------|

E7
На краю бескрайней синевы 
G
Над ручьём с дощатыми мостками 
F
Там где васильки среди травы 
E7
Я любуюсь молча облаками 


E7 
Лёгкий дым в далёкой тишине 
G
Нет причин необъяснимой грусти
F
Их полёт тревожит сердце мне 
E7
Облака летят чтоб не вернуться 

Припев:

C
     Облака, облака, облака 
Am
     Мы похожи, мы с вами похожи 
F
     Улетаем к чужим берегам 
Am
    А обратно вернуться не можем 

E7 
И течёт холодная вода 
G
Свет в душе возвышенный и строгий 
F
И зовёт неведомо куда 
E7
Облаков небесная дорога 


E7 
Облака как белый снег чисты 
G
По земле скользят неслышно тени 
F
Это нашей юности мечты 
E7
Тают где-то в небесах осенних 
    
C
     Облака, облака, облака 
Am
     Мы похожи, мы с вами похожи 
F
     Улетаем к чужим берегам 
Am
    А обратно вернуться не можем

C
     Облака, облака, облака 
Am
     Мы похожи, мы с вами похожи 
F
     Улетаем к чужим берегам 
Am
    А обратно вернуться не можем 

Проигрыш: Riff2

C
     Облака, облака, облака 
Am
     Мы похожи, мы с вами похожи 
F
     Улетаем к чужим берегам 
Am
    А обратно вернуться не можем

C
     Облака, облака, облака 
Am
     Мы похожи, мы с вами похожи 
F
     Улетаем к чужим берегам 
Am
    А обратно вернуться не можем 
Am
    А обратно вернуться не можем


Расскажи друзьям!




Войдите, используя Ваш аккаунт:



Забыли пароль?
Зарегистрироваться

Привет, гитарист!

Пройди супер-курс по гитаре и порази всех своей игрой!

Забрать курс!
ВАМ ПОДАРКИ ОТ ПРОЕКТА
"ГИТАРНАЯ РЕВОЛЮЦИЯ"