Gitaristu.ru
Аккорды Табулатура Начинающим Мастер-класс Софт Видео
Новости Анонсы Гитары Гитаристы Статьи Аватарки Минусовки
Поиск



Популярные подборы




Настройка гитары






Главная > Аккорды > Г > Градусы

Аккорды
Градусы
-
Режисер

Не нашли аккорды к песне? Посмотрите на


Подбор прислал: gitaristu.ru
E||-------4h6--4----|-------4h6--4-----|-------6h8--6-----|-------6h8--6----|
H||----6------------|----6-------------|----8-------------|----8------------|
G||-5---------------|-5----------------|-8----------------|-8---------------|
D||-----------------|------------------|------------------|-----------------|
A||-----------------|------------------|------------------|-----------------|
E||-----------------|------------------|------------------|-----------------|
 
E||-------4h6--4----|-------4h6--4-----|-------6h8--6-----|----3------------|
H||----6------------|----6-------------|----8-------------|--------4--------|
G||-6---------------|-6----------------|-8----------------|-3----------3----|
D||-----------------|------------------|------------------|-----------------|
A||-----------------|------------------|------------------|-----------------|
E||-----------------|------------------|------------------|-----------------|


Вначале песни бой прерывистый, припев же и дальше играется активным боем.

Аккорды:
Вступление: Cm7

C#
Я закрою за собою,
Cm7
ты сказала “я не стою”
Bm
Я подброшу на удачу,
D#
докурю и пойду дальше

C#
Не дождётесь, не заплачу,
Cm7
если что любой получит сдачи
Bm
Я в этом фильме – главный актёр,
D#
я – сценарист в нём, я – режиссёр.

C#
Враг мой бойся меня,
Cm
друг мой не отрекайся от меня
Bm7)
Нелюбимая, прости меня,
D#
любимая – люби меня.

На минуту замечтаюсь,
не летаю, но пытаюсь
Упаду и поднимаюсь,
всё в порядке, оклемаюсь

Не дождётесь, не заплачу,
если что любой получит сдачи
Я в этом фильме – главный актёр,
я – сценарист в нём, я – режиссёр.

Враг мой бойся меня,
друг мой не отрекайся от меня
Нелюбимая, прости меня,
любимая – люби меня.

is on you rok it me in up
becouse she be but it sup
it’s baby sup
is on you rok it me silk on tu me
she be but it sup get the but this me
Come on i know – now lirigali know
spring by the rushes the rups the but it know
rub vit’s my ruby…………
and the one and the two and the four….

Враг мой бойся меня,
друг мой не отрекайся от меня
Нелюбимая, прости меня,
любимая – люби меня.

Другие подборы этого исполнителя

Расскажи друзьям!




Привет, гитарист!

Пройди супер-курс по гитаре и порази всех своей игрой!

Забрать курс!
ВАМ ПОДАРКИ ОТ ПРОЕКТА
"ГИТАРНАЯ РЕВОЛЮЦИЯ"