Gitaristu.ru
Аккорды Табулатура Начинающим Мастер-класс Софт Видео Форум Блог
Новости Анонсы Гитары Гитаристы Статьи Аватарки Минусовки
Поиск





Популярные подборы




Настройка гитары






Главная > Аккорды > Г > Гражданская Оборона

Аккорды
Гражданская Оборона
-
Все идет по плану (1)

Не нашли аккорды к песне? Посмотрите на


Подбор прислал: gitaristu.ru
Аккорды:

  G5(7)  G5   G5(10) G5(2)      цифры в скобках лады (должно быть понятно)
  |-9-| |-5-| |-12-| |-4-|                       
  |-9-| |-5-| |-12-| |-4-|                        
  |-7-| |-3-| |-10-| |-2-|   


Вступление:
        
        Bass

1|-----------------------------------|               
2|----9------5-------12-------4------|                
3|----9------5-------12-------4------|
4|--7------3------10--------2--------| 
 |                                   |
 |  Acous                            |
 |                                   |
1|------7-------3--------10------2---|
2|------7-------3--------10------2---|               
3|-----------------------------------|
4|-----------------------------------|
5|-----------------------------------|            
6|-----------------------------------|     
             
Это играется в начале и в конце песни. 

Далее Bass:

     G5(7)   G5     G5(10)    G5(2) 
 1 |----------------------------------| 
 2 |----9------5-------12-------4-----|
 3 |----9------5-------12-------4-----|
 4 |-7------3------10--------2--------| 
               

 G5(7)   G5    G5(10)     G5(2)
Границы ключ переломлен пополам
G5(7)   G5    G5(10)     G5(2)
А наш батюшка Ленин совсем усох
G5(7)    G5      G5(10)       G5(2)
Он разложился на плесень и на липовый мед
G5(7)   G5     G5(10)    G5(2)
А перестройка все идет и идет по плану
G5(7)         G5         G5(10)         
И вся грязь превратилась в голый лед
G5(2)  G5(7)   G5    G5(10)         
И все идет по плану
G5(2)   G5(7)   G5    G5(10)    G5(2)      
Все идет по плану

А моей судьбе захотелось на покой
Я обещал ей не участвовать в военной игре
Но на фуражке на моей серп и молот, и звезда
Как это трогательно: серп и молот, и звезда
Лихой фонарь ожидания мотается
И все идет по плану
Все идет по плану

А моей женой накормили толпу
Мировым кулаком растоптали ей грудь
Всенародной свободой разорвали ей плоть
Так закопайте ее во Христе
Ведь все идет по плану
Все идет по плану.
Расскажи друзьям!




Войдите, используя Ваш аккаунт:



Забыли пароль?
Зарегистрироваться

Привет, гитарист!

Пройди супер-курс по гитаре и порази всех своей игрой!

Забрать курс!
ВАМ ПОДАРКИ ОТ ПРОЕКТА
"ГИТАРНАЯ РЕВОЛЮЦИЯ"