Gitaristu.ru
Аккорды Табулатура Начинающим Мастер-класс Софт Видео Форум Блог
Новости Анонсы Гитары Гитаристы Статьи Аватарки Минусовки
Поиск





Популярные подборы




Настройка гитары






Главная > Аккорды > Г > Губин

Аккорды
Губин
-
Лиза (2)

Не нашли аккорды к песне? Посмотрите на


Подбор прислал: gitaristu.ru
E|4------4-4-2-0-----0h2--0---
H|--2------------4-----------0

E|0h4-4----2-0------0h2---2/4-
H|-------------4--------------

E|2h4--5/7-5-4-2-----0h2-2/4--
H|----------------------------
         
E|--------42-2-0------------
H|----------------4~---------
Расскажи друзьям!




Войдите, используя Ваш аккаунт:



Забыли пароль?
Зарегистрироваться

Привет, гитарист!

Пройди супер-курс по гитаре и порази всех своей игрой!

Забрать курс!
ВАМ ПОДАРКИ ОТ ПРОЕКТА
"ГИТАРНАЯ РЕВОЛЮЦИЯ"