Gitaristu.ru
Аккорды Табулатура Начинающим Мастер-класс Софт Видео
Новости Анонсы Гитары Гитаристы Статьи Аватарки Минусовки
Поиск



Популярные подборы




Настройка гитары






Главная > Аккорды > К > Кино

Аккорды
Кино
-
Бошетунмай (2)

Не нашли аккорды к песне? Посмотрите на


Подбор прислал: gitaristu.ru
    A                  Fm#
E|------------------------|
B|---------------------2--|
G|--2------2--2--4--2-----|
D|------------------------|
A|------------------------|
E|------------------------|

    A                  Fm#
E|------------------------|
B|--5------0--2--3--2-----|
G|---------------------2--|
D|------------------------|
A|------------------------|
E|------------------------|

    E                 A
E|-----------------------|
B|--5--5--3--2--3--2-----|
G|--------------------2--|
D|-----------------------|
A|-----------------------|
E|-----------------------|


 A                                  Fm#
Тот кто в пятнадцать лет убежал из дома,
  A                                    Fm#
Вряд ли поймет того кто учился в спецшколе.
 A                                 Fm#
Тот у кого есть хороший жизненый план,
  A                               Fm#
Вряд ли будет думать о чем-то другом.


Мы пьем чай в старых квартирах,
Ждем лета в старых квартирах.
В старых квартирах, где есть свет,
Газ, телефон, горячая вода, радиоточка,
Пол, паркет, санузел раздельный,
Дом кирпичный, одна семья,
Две семьи, три семьи,
Много подсобных помещений.
Первый и последний не предлагать.
Рядом с метро, центр.


Все говорят, что мы вместе
Все говорят, но немногие знают в каком.
А из наших труб идет необычный дым
Стой  Опасная зона  Работа мозга 

Бошетунмай...

Другие подборы этого исполнителя

Расскажи друзьям!




Привет, гитарист!

Пройди супер-курс по гитаре и порази всех своей игрой!

Забрать курс!
ВАМ ПОДАРКИ ОТ ПРОЕКТА
"ГИТАРНАЯ РЕВОЛЮЦИЯ"