Gitaristu.ru
Аккорды Табулатура Начинающим Мастер-класс Софт Видео
Новости Анонсы Гитары Гитаристы Статьи Аватарки Минусовки
Поиск



Популярные подборы




Настройка гитары






Главная > Аккорды > К > Кино

Аккорды
Кино
-
Электричка (1)

Не нашли аккорды к песне? Посмотрите на


Подбор прислал: gitaristu.ru
 Вступление.
||---------------------------------|
||----------0--------------0-------|
||.----h----0---------h----0------.|
||.--0 ^ 2--2--0----0 ^ 2--2--0---.|
||----------2--------------2-------|
||----------0--------------0-------|



  Ритм гитара(Цой)
|-0--0--0--0--0--0--0--0-|-0--0--0--0--0--0--0--0-|
|-0--0--0--0--1--1--1--1-|-0--0--0--0--1--1--1--1-|
|-0--0--0--0--0--0--0--0-|-0--0--0--0--0--0--0--0-|
|-2--2--2--2--2--2--2--2-|-2--2--2--2--2--2--2--2-|
|-2--2--2--2--3--3--3--3-|-2--2--2--2--3--3--3--3-|
|-0--0--0--0--0--0--0--0-|-0--0--0--0--0--0--0--0-|



  Соло гитара(Рыба)
|--------0(0)-0(0)-------|[12]---------12---------|
|--------4/5b-4/5b~~~----|---[12]---------13------|
|------------------------|------[12]---------12---|
|------------------------| |--Флажолеты.          |
|------------------------|------------------------|
|------------------------|------------------------|



  Барабаны   (Драм машина)
|------------------------|--------------------------|
|-Бум---Бум---Бум---Бум--|-Бум---Бум---Бум---Бум----|
|------------------------|--------------------------|
|------------------------|--------------------------|
|------------------------|--------------------------|
|------------------------|--------------------------|

Другие подборы этого исполнителя

Расскажи друзьям!




Привет, гитарист!

Пройди супер-курс по гитаре и порази всех своей игрой!

Забрать курс!
ВАМ ПОДАРКИ ОТ ПРОЕКТА
"ГИТАРНАЯ РЕВОЛЮЦИЯ"