Gitaristu.ru
Аккорды Табулатура Начинающим Мастер-класс Софт Видео
Новости Анонсы Гитары Гитаристы Статьи Аватарки Минусовки
Поиск



Популярные подборы




Настройка гитары






Главная > Аккорды > К > Кино

Аккорды
Кино
-
Игра (1)

Не нашли аккорды к песне? Посмотрите на


Подбор прислал: gitaristu.ru
Intro:

e--5---0-1---0---|---0-------0---|
h------1---1---1---|-3---3---3---3-|
g------2-----2---2-|-0---0---0---0-|  (2 раза)
d------------------|---------------|
a--0-------0-------|-2-------2-----|
e------------------|---------------|

 
--8-------0-1----0---|---0-------0---|-5---0-1---0---|---0---0---0---0-
----8-------1----1---|-3---3---3---3-|-----1---1---1---|-3---3---3---3---
---------------0---0-|-0---0---0---0-|-----2-----2---2--0-------0-------
---------------------|---------------|-----------------|-----------------
------10----3--------|-2-------2-----|-0-------0-------|-2---------------
--8------------------|---------------|-----------------|-----------------

Другие подборы этого исполнителя

Расскажи друзьям!




Привет, гитарист!

Пройди супер-курс по гитаре и порази всех своей игрой!

Забрать курс!
ВАМ ПОДАРКИ ОТ ПРОЕКТА
"ГИТАРНАЯ РЕВОЛЮЦИЯ"